ISO-10303-21;
HEADER;
FILE_DESCRIPTION (( 'STEP AP214' ),
    '1' );
FILE_NAME ('03-0328.STEP',
    '2020-07-23T06:48:32',
    ( '' ),
    ( '' ),
    'SwSTEP 2.0',
    'SolidWorks 2014',
    '' );
FILE_SCHEMA (( 'AUTOMOTIVE_DESIGN' ));
ENDSEC;

DATA;
#1 = VERTEX_POINT ( 'NONE', #76 ) ;
#2 = ADVANCED_FACE ( 'NONE', ( #139 ), #68, .T. ) ;
#3 =( NAMED_UNIT ( * ) PLANE_ANGLE_UNIT ( ) SI_UNIT ( $, .RADIAN. ) );
#4 = ORIENTED_EDGE ( 'NONE', *, *, #11, .T. ) ;
#5 = EDGE_LOOP ( 'NONE', ( #145, #159, #31 ) ) ;
#6 = CARTESIAN_POINT ( 'NONE',  ( 0.0000000000000000000, -1.041400000000003000, -6.235772159968791700E-020 ) ) ;
#7 = CARTESIAN_POINT ( 'NONE',  ( 0.0000000000000000000, 0.8331199999999996400, 6.378606614808257600E-017 ) ) ;
#8 = AXIS2_PLACEMENT_3D ( 'NONE', #34, #153, #118 ) ;
#9 =( NAMED_UNIT ( * ) PLANE_ANGLE_UNIT ( ) SI_UNIT ( $, .RADIAN. ) );
#10 = LINE ( 'NONE', #160, #52 ) ;
#11 = EDGE_CURVE ( 'NONE', #203, #156, #112, .T. ) ;
#12 = EDGE_CURVE ( 'NONE', #156, #203, #23, .T. ) ;
#13 = COLOUR_RGB ( '',0.7921568627450980000, 0.8196078431372548800, 0.9333333333333333500 ) ;
#14 = UNCERTAINTY_MEASURE_WITH_UNIT (LENGTH_MEASURE( 1.000000000000000100E-005 ), #214, 'distance_accuracy_value', 'NONE');
#15 = CYLINDRICAL_SURFACE ( 'NONE', #45, 1.041400000000003000 ) ;
#16 = VECTOR ( 'NONE', #73, 1000.000000000000100 ) ;
#17 = EDGE_CURVE ( 'NONE', #60, #203, #10, .T. ) ;
#18 =( LENGTH_UNIT ( ) NAMED_UNIT ( * ) SI_UNIT ( .MILLI., .METRE. ) );
#19 = DIRECTION ( 'NONE',  ( 0.0000000000000000000, 1.000000000000000000, 0.0000000000000000000 ) ) ;
#20 = VERTEX_POINT ( 'NONE', #126 ) ;
#21 = EDGE_CURVE ( 'NONE', #117, #20, #199, .T. ) ;
#22 = UNCERTAINTY_MEASURE_WITH_UNIT (LENGTH_MEASURE( 1.000000000000000100E-005 ), #18, 'distance_accuracy_value', 'NONE');
#23 = CIRCLE ( 'NONE', #80, 1.041400000000006100 ) ;
#24 = ORIENTED_EDGE ( 'NONE', *, *, #12, .T. ) ;
#25 = DIRECTION ( 'NONE',  ( -0.0000000000000000000, -5.987874169357377200E-020, 1.000000000000000000 ) ) ;
#26 = CARTESIAN_POINT ( 'NONE',  ( 0.0000000000000000000, 0.8331199999999996400, 6.378606614808257600E-017 ) ) ;
#27 = PRODUCT_RELATED_PRODUCT_CATEGORY ( 'part', '', ( #94 ) ) ;
#28 = CARTESIAN_POINT ( 'NONE',  ( 0.0000000000000000000, 3.231955082910644200E-018, -53.97499999999999400 ) ) ;
#29 = ORIENTED_EDGE ( 'NONE', *, *, #32, .T. ) ;
#30 = DIRECTION ( 'NONE',  ( 0.0000000000000000000, 5.987874169357378400E-020, -1.000000000000000000 ) ) ;
#31 = ORIENTED_EDGE ( 'NONE', *, *, #11, .F. ) ;
#32 = EDGE_CURVE ( 'NONE', #117, #1, #144, .T. ) ;
#33 = AXIS2_PLACEMENT_3D ( 'NONE', #103, #50, #98 ) ;
#34 = CARTESIAN_POINT ( 'NONE',  ( 0.0000000000000000000, -5.662095719665784600E-017, 945.5936379961447100 ) ) ;
#35 = CARTESIAN_POINT ( 'NONE',  ( 0.0000000000000000000, -3.816442257006833000E-036, 6.373617997080282700E-017 ) ) ;
#36 = CONICAL_SURFACE ( 'NONE', #127, 0.8331199999999996400, 0.7853981633974410600 ) ;
#37 = APPLICATION_CONTEXT ( 'automotive_design' ) ;
#38 = ORIENTED_EDGE ( 'NONE', *, *, #201, .F. ) ;
#39 =( NAMED_UNIT ( * ) SI_UNIT ( $, .STERADIAN. ) SOLID_ANGLE_UNIT ( ) );
#40 = AXIS2_PLACEMENT_3D ( 'NONE', #66, #181, #77 ) ;
#41 = ORIENTED_EDGE ( 'NONE', *, *, #86, .T. ) ;
#42 = PRESENTATION_LAYER_ASSIGNMENT (  '', '', ( #130 ) ) ;
#43 = CLOSED_SHELL ( 'NONE', ( #2, #202, #115, #183, #120, #148, #132 ) ) ;
#44 = EDGE_LOOP ( 'NONE', ( #29, #107 ) ) ;
#45 = AXIS2_PLACEMENT_3D ( 'NONE', #101, #131, #97 ) ;
#46 = DIRECTION ( 'NONE',  ( 1.131426112287697500E-016, 0.9238795325112844100, 0.3826834323650953300 ) ) ;
#47 = DIRECTION ( 'NONE',  ( 0.0000000000000000000, -0.9238795325112844100, 0.3826834323650953300 ) ) ;
#48 = CONICAL_SURFACE ( 'NONE', #8, 2414.213562373053700, 1.178097245096166400 ) ;
#49 = ORIENTED_EDGE ( 'NONE', *, *, #86, .F. ) ;
#50 = DIRECTION ( 'NONE',  ( -0.0000000000000000000, -5.987874169357377200E-020, 1.000000000000000000 ) ) ;
#51 = DIRECTION ( 'NONE',  ( 0.0000000000000000000, 1.000000000000000000, 0.0000000000000000000 ) ) ;
#52 = VECTOR ( 'NONE', #46, 1000.000000000000200 ) ;
#53 = EDGE_LOOP ( 'NONE', ( #24, #85, #212, #38 ) ) ;
#54 = CARTESIAN_POINT ( 'NONE',  ( 1.275347176632061600E-016, 1.041400000000006300, -53.97499999999999400 ) ) ;
#55 = AXIS2_PLACEMENT_3D ( 'NONE', #177, #96, #140 ) ;
#56 = AXIS2_PLACEMENT_3D ( 'NONE', #192, #108, #162 ) ;
#57 = FACE_OUTER_BOUND ( 'NONE', #5, .T. ) ;
#58 =( GEOMETRIC_REPRESENTATION_CONTEXT ( 3 ) GLOBAL_UNCERTAINTY_ASSIGNED_CONTEXT ( ( #194 ) ) GLOBAL_UNIT_ASSIGNED_CONTEXT ( ( #137, #9, #154 ) ) REPRESENTATION_CONTEXT ( 'NONE', 'WORKASPACE' ) );
#59 = CARTESIAN_POINT ( 'NONE',  ( 0.0000000000000000000, -3.816442257006833000E-036, 6.373617997080282700E-017 ) ) ;
#60 = VERTEX_POINT ( 'NONE', #142 ) ;
#61 = CARTESIAN_POINT ( 'NONE',  ( 1.020277741305642600E-016, -0.8331199999999996400, 6.368629379352309000E-017 ) ) ;
#62 = EDGE_CURVE ( 'NONE', #60, #156, #88, .T. ) ;
#63 = FILL_AREA_STYLE_COLOUR ( '', #13 ) ;
#64 = CARTESIAN_POINT ( 'NONE',  ( 0.0000000000000000000, -3.816442257006832300E-036, 6.373617997080282700E-017 ) ) ;
#65 =( GEOMETRIC_REPRESENTATION_CONTEXT ( 3 ) GLOBAL_UNCERTAINTY_ASSIGNED_CONTEXT ( ( #22 ) ) GLOBAL_UNIT_ASSIGNED_CONTEXT ( ( #18, #165, #82 ) ) REPRESENTATION_CONTEXT ( 'NONE', 'WORKASPACE' ) );
#66 = CARTESIAN_POINT ( 'NONE',  ( 0.0000000000000000000, 1.041399999999999900, 6.379853769240251000E-017 ) ) ;
#67 = DIRECTION ( 'NONE',  ( 0.0000000000000000000, 1.000000000000000000, 5.987874169356898100E-020 ) ) ;
#68 = CONICAL_SURFACE ( 'NONE', #89, 0.8331199999999996400, 0.7853981633974410600 ) ;
#69 = APPLICATION_CONTEXT ( 'automotive_design' ) ;
#70 = SURFACE_STYLE_USAGE ( .BOTH. , #111 ) ;
#71 = EDGE_LOOP ( 'NONE', ( #49, #83, #99, #93 ) ) ;
#72 = CIRCLE ( 'NONE', #186, 1.041400000000003000 ) ;
#73 = DIRECTION ( 'NONE',  ( 0.0000000000000000000, 0.7071067811865423500, -0.7071067811865526800 ) ) ;
#74 = FACE_OUTER_BOUND ( 'NONE', #78, .T. ) ;
#75 = MECHANICAL_DESIGN_GEOMETRIC_PRESENTATION_REPRESENTATION (  '', ( #124 ), #58 ) ;
#76 = CARTESIAN_POINT ( 'NONE',  ( 1.147812458968849900E-016, -0.8331199999999996400, 6.368629379352309000E-017 ) ) ;
#77 = DIRECTION ( 'NONE',  ( 0.0000000000000000000, 1.000000000000000000, 5.987874169357377200E-020 ) ) ;
#78 = EDGE_LOOP ( 'NONE', ( #173, #205, #176 ) ) ;
#79 = DIRECTION ( 'NONE',  ( 0.0000000000000000000, 1.000000000000000000, 5.987874169356898100E-020 ) ) ;
#80 = AXIS2_PLACEMENT_3D ( 'NONE', #28, #196, #191 ) ;
#81 = CARTESIAN_POINT ( 'NONE',  ( 0.0000000000000000000, 1.247154431993792700E-020, -0.2082800000000063800 ) ) ;
#82 =( NAMED_UNIT ( * ) SI_UNIT ( $, .STERADIAN. ) SOLID_ANGLE_UNIT ( ) );
#83 = ORIENTED_EDGE ( 'NONE', *, *, #32, .F. ) ;
#84 = FILL_AREA_STYLE_COLOUR ( '', #187 ) ;
#85 = ORIENTED_EDGE ( 'NONE', *, *, #114, .T. ) ;
#86 = EDGE_CURVE ( 'NONE', #1, #95, #121, .T. ) ;
#87 = SHAPE_DEFINITION_REPRESENTATION ( #147, #151 ) ;
#88 = LINE ( 'NONE', #92, #109 ) ;
#89 = AXIS2_PLACEMENT_3D ( 'NONE', #59, #125, #91 ) ;
#90 = CARTESIAN_POINT ( 'NONE',  ( 1.275347176632057400E-016, 1.041400000000003000, 6.235772159968791700E-020 ) ) ;
#91 = DIRECTION ( 'NONE',  ( 0.0000000000000000000, 1.000000000000000000, 5.987874169356898100E-020 ) ) ;
#92 = CARTESIAN_POINT ( 'NONE',  ( 0.0000000000000000000, 3.257784496915920900E-018, -54.40636200385534900 ) ) ;
#93 = ORIENTED_EDGE ( 'NONE', *, *, #193, .F. ) ;
#94 = PRODUCT ( '03-0328', '03-0328', '', ( #188 ) ) ;
#95 = VERTEX_POINT ( 'NONE', #211 ) ;
#96 = DIRECTION ( 'NONE',  ( -0.0000000000000000000, -5.987874169357377200E-020, 1.000000000000000000 ) ) ;
#97 = DIRECTION ( 'NONE',  ( 0.0000000000000000000, -1.000000000000000000, -5.987874169357378400E-020 ) ) ;
#98 = DIRECTION ( 'NONE',  ( 0.0000000000000000000, -1.000000000000000000, -5.987874169357378400E-020 ) ) ;
#99 = ORIENTED_EDGE ( 'NONE', *, *, #21, .T. ) ;
#100 = PRODUCT_DEFINITION_FORMATION_WITH_SPECIFIED_SOURCE ( 'ANY', '', #94, .NOT_KNOWN. ) ;
#101 = CARTESIAN_POINT ( 'NONE',  ( 0.0000000000000000000, 0.0000000000000000000, 0.0000000000000000000 ) ) ;
#102 = DIRECTION ( 'NONE',  ( 0.0000000000000000000, 5.987874169357378400E-020, -1.000000000000000000 ) ) ;
#103 = CARTESIAN_POINT ( 'NONE',  ( 0.0000000000000000000, 0.0000000000000000000, 0.0000000000000000000 ) ) ;
#104 = ORIENTED_EDGE ( 'NONE', *, *, #21, .F. ) ;
#105 = PRODUCT_DEFINITION_CONTEXT ( 'detailed design', #69, 'design' ) ;
#106 = CONICAL_SURFACE ( 'NONE', #56, 2414.213562373053700, 1.178097245096166400 ) ;
#107 = ORIENTED_EDGE ( 'NONE', *, *, #213, .T. ) ;
#108 = DIRECTION ( 'NONE',  ( -0.0000000000000000000, -5.987874169357377200E-020, 1.000000000000000000 ) ) ;
#109 = VECTOR ( 'NONE', #47, 1000.000000000000200 ) ;
#110 = CARTESIAN_POINT ( 'NONE',  ( 0.0000000000000000000, 3.231955082910644200E-018, -53.97499999999999400 ) ) ;
#111 = SURFACE_SIDE_STYLE ('',( #135 ) ) ;
#112 = CIRCLE ( 'NONE', #146, 1.041400000000006100 ) ;
#113 = CARTESIAN_POINT ( 'NONE',  ( 0.0000000000000000000, -1.041400000000006300, -53.97499999999999400 ) ) ;
#114 = EDGE_CURVE ( 'NONE', #203, #20, #209, .T. ) ;
#115 = ADVANCED_FACE ( 'NONE', ( #74 ), #106, .T. ) ;
#116 = CIRCLE ( 'NONE', #178, 1.041400000000003000 ) ;
#117 = VERTEX_POINT ( 'NONE', #7 ) ;
#118 = DIRECTION ( 'NONE',  ( 0.0000000000000000000, -1.000000000000000000, 0.0000000000000000000 ) ) ;
#119 = MANIFOLD_SOLID_BREP ( '¸ðµû±â1', #43 ) ;
#120 = ADVANCED_FACE ( 'NONE', ( #57 ), #48, .T. ) ;
#121 = LINE ( 'NONE', #61, #161 ) ;
#122 = FACE_OUTER_BOUND ( 'NONE', #44, .T. ) ;
#123 = ORIENTED_EDGE ( 'NONE', *, *, #163, .F. ) ;
#124 = STYLED_ITEM ( 'NONE', ( #167 ), #151 ) ;
#125 = DIRECTION ( 'NONE',  ( 0.0000000000000000000, 5.987874169357378400E-020, -1.000000000000000000 ) ) ;
#126 = CARTESIAN_POINT ( 'NONE',  ( 1.275347176632057400E-016, 1.041400000000003000, -0.2082800000000063800 ) ) ;
#127 = AXIS2_PLACEMENT_3D ( 'NONE', #35, #102, #67 ) ;
#128 = SURFACE_SIDE_STYLE ('',( #152 ) ) ;
#129 = ORIENTED_EDGE ( 'NONE', *, *, #201, .T. ) ;
#130 = STYLED_ITEM ( 'NONE', ( #174 ), #119 ) ;
#131 = DIRECTION ( 'NONE',  ( -0.0000000000000000000, -5.987874169357377200E-020, 1.000000000000000000 ) ) ;
#132 = ADVANCED_FACE ( 'NONE', ( #168 ), #36, .T. ) ;
#133 = PLANE ( 'NONE',  #40 ) ;
#134 = SURFACE_STYLE_USAGE ( .BOTH. , #128 ) ;
#135 = SURFACE_STYLE_FILL_AREA ( #143 ) ;
#136 = AXIS2_PLACEMENT_3D ( 'NONE', #64, #182, #79 ) ;
#137 =( LENGTH_UNIT ( ) NAMED_UNIT ( * ) SI_UNIT ( .MILLI., .METRE. ) );
#138 = VECTOR ( 'NONE', #204, 1000.000000000000000 ) ;
#139 = FACE_OUTER_BOUND ( 'NONE', #189, .T. ) ;
#140 = DIRECTION ( 'NONE',  ( 0.0000000000000000000, 1.000000000000000000, 5.987874169356898100E-020 ) ) ;
#141 = FACE_OUTER_BOUND ( 'NONE', #198, .T. ) ;
#142 = CARTESIAN_POINT ( 'NONE',  ( 0.0000000000000000000, 3.257784496915920900E-018, -54.40636200385534900 ) ) ;
#143 = FILL_AREA_STYLE ('',( #84 ) ) ;
#144 = CIRCLE ( 'NONE', #55, 0.8331199999999996400 ) ;
#145 = ORIENTED_EDGE ( 'NONE', *, *, #17, .F. ) ;
#146 = AXIS2_PLACEMENT_3D ( 'NONE', #110, #25, #175 ) ;
#147 = PRODUCT_DEFINITION_SHAPE ( 'NONE', 'NONE',  #150 ) ;
#148 = ADVANCED_FACE ( 'NONE', ( #141 ), #207, .T. ) ;
#149 = APPLICATION_PROTOCOL_DEFINITION ( 'draft international standard', 'automotive_design', 1998, #37 ) ;
#150 = PRODUCT_DEFINITION ( 'UNKNOWN', '', #100, #105 ) ;
#151 = ADVANCED_BREP_SHAPE_REPRESENTATION ( '03-0328', ( #119, #206 ), #65 ) ;
#152 = SURFACE_STYLE_FILL_AREA ( #170 ) ;
#153 = DIRECTION ( 'NONE',  ( -0.0000000000000000000, -5.987874169357377200E-020, 1.000000000000000000 ) ) ;
#154 =( NAMED_UNIT ( * ) SI_UNIT ( $, .STERADIAN. ) SOLID_ANGLE_UNIT ( ) );
#155 = FACE_OUTER_BOUND ( 'NONE', #53, .T. ) ;
#156 = VERTEX_POINT ( 'NONE', #113 ) ;
#157 = DIRECTION ( 'NONE',  ( 1.000000000000000000, 0.0000000000000000000, 0.0000000000000000000 ) ) ;
#158 = MECHANICAL_DESIGN_GEOMETRIC_PRESENTATION_REPRESENTATION (  '', ( #130 ), #166 ) ;
#159 = ORIENTED_EDGE ( 'NONE', *, *, #62, .T. ) ;
#160 = CARTESIAN_POINT ( 'NONE',  ( 0.0000000000000000000, 3.257784496915920900E-018, -54.40636200385534900 ) ) ;
#161 = VECTOR ( 'NONE', #180, 1000.000000000000100 ) ;
#162 = DIRECTION ( 'NONE',  ( 0.0000000000000000000, -1.000000000000000000, 0.0000000000000000000 ) ) ;
#163 = EDGE_CURVE ( 'NONE', #20, #95, #116, .T. ) ;
#164 = VECTOR ( 'NONE', #210, 1000.000000000000000 ) ;
#165 =( NAMED_UNIT ( * ) PLANE_ANGLE_UNIT ( ) SI_UNIT ( $, .RADIAN. ) );
#166 =( GEOMETRIC_REPRESENTATION_CONTEXT ( 3 ) GLOBAL_UNCERTAINTY_ASSIGNED_CONTEXT ( ( #14 ) ) GLOBAL_UNIT_ASSIGNED_CONTEXT ( ( #214, #3, #39 ) ) REPRESENTATION_CONTEXT ( 'NONE', 'WORKASPACE' ) );
#167 = PRESENTATION_STYLE_ASSIGNMENT (( #70 ) ) ;
#168 = FACE_OUTER_BOUND ( 'NONE', #71, .T. ) ;
#169 = ORIENTED_EDGE ( 'NONE', *, *, #193, .T. ) ;
#170 = FILL_AREA_STYLE ('',( #63 ) ) ;
#171 = DIRECTION ( 'NONE',  ( 0.0000000000000000000, 0.0000000000000000000, 1.000000000000000000 ) ) ;
#172 = APPLICATION_PROTOCOL_DEFINITION ( 'draft international standard', 'automotive_design', 1998, #69 ) ;
#173 = ORIENTED_EDGE ( 'NONE', *, *, #62, .F. ) ;
#174 = PRESENTATION_STYLE_ASSIGNMENT (( #134 ) ) ;
#175 = DIRECTION ( 'NONE',  ( 0.0000000000000000000, -1.000000000000000000, 0.0000000000000000000 ) ) ;
#176 = ORIENTED_EDGE ( 'NONE', *, *, #12, .F. ) ;
#177 = CARTESIAN_POINT ( 'NONE',  ( 0.0000000000000000000, -3.816442257006832300E-036, 6.373617997080282700E-017 ) ) ;
#178 = AXIS2_PLACEMENT_3D ( 'NONE', #200, #197, #19 ) ;
#179 = ORIENTED_EDGE ( 'NONE', *, *, #114, .F. ) ;
#180 = DIRECTION ( 'NONE',  ( 8.659560562354870000E-017, -0.7071067811865423500, -0.7071067811865526800 ) ) ;
#181 = DIRECTION ( 'NONE',  ( 0.0000000000000000000, 5.987874169357377200E-020, -1.000000000000000000 ) ) ;
#182 = DIRECTION ( 'NONE',  ( -0.0000000000000000000, -5.987874169357377200E-020, 1.000000000000000000 ) ) ;
#183 = ADVANCED_FACE ( 'NONE', ( #122 ), #133, .F. ) ;
#184 = LINE ( 'NONE', #6, #138 ) ;
#185 = CARTESIAN_POINT ( 'NONE',  ( 0.0000000000000000000, 0.0000000000000000000, 0.0000000000000000000 ) ) ;
#186 = AXIS2_PLACEMENT_3D ( 'NONE', #81, #30, #51 ) ;
#187 = COLOUR_RGB ( '',0.7921568627450980000, 0.8196078431372548800, 0.9333333333333333500 ) ;
#188 = PRODUCT_CONTEXT ( 'NONE', #37, 'mechanical' ) ;
#189 = EDGE_LOOP ( 'NONE', ( #208, #41, #123, #104 ) ) ;
#190 = PRESENTATION_LAYER_ASSIGNMENT (  '', '', ( #124 ) ) ;
#191 = DIRECTION ( 'NONE',  ( 0.0000000000000000000, -1.000000000000000000, 0.0000000000000000000 ) ) ;
#192 = CARTESIAN_POINT ( 'NONE',  ( 0.0000000000000000000, -5.662095719665784600E-017, 945.5936379961447100 ) ) ;
#193 = EDGE_CURVE ( 'NONE', #95, #20, #72, .T. ) ;
#194 = UNCERTAINTY_MEASURE_WITH_UNIT (LENGTH_MEASURE( 1.000000000000000100E-005 ), #137, 'distance_accuracy_value', 'NONE');
#195 = CIRCLE ( 'NONE', #136, 0.8331199999999996400 ) ;
#196 = DIRECTION ( 'NONE',  ( -0.0000000000000000000, -5.987874169357377200E-020, 1.000000000000000000 ) ) ;
#197 = DIRECTION ( 'NONE',  ( 0.0000000000000000000, 5.987874169357378400E-020, -1.000000000000000000 ) ) ;
#198 = EDGE_LOOP ( 'NONE', ( #179, #4, #129, #169 ) ) ;
#199 = LINE ( 'NONE', #26, #16 ) ;
#200 = CARTESIAN_POINT ( 'NONE',  ( 0.0000000000000000000, 1.247154431993792700E-020, -0.2082800000000063800 ) ) ;
#201 = EDGE_CURVE ( 'NONE', #156, #95, #184, .T. ) ;
#202 = ADVANCED_FACE ( 'NONE', ( #155 ), #15, .T. ) ;
#203 = VERTEX_POINT ( 'NONE', #54 ) ;
#204 = DIRECTION ( 'NONE',  ( -0.0000000000000000000, -5.987874169357377200E-020, 1.000000000000000000 ) ) ;
#205 = ORIENTED_EDGE ( 'NONE', *, *, #17, .T. ) ;
#206 = AXIS2_PLACEMENT_3D ( 'NONE', #185, #171, #157 ) ;
#207 = CYLINDRICAL_SURFACE ( 'NONE', #33, 1.041400000000003000 ) ;
#208 = ORIENTED_EDGE ( 'NONE', *, *, #213, .F. ) ;
#209 = LINE ( 'NONE', #90, #164 ) ;
#210 = DIRECTION ( 'NONE',  ( -0.0000000000000000000, -5.987874169357377200E-020, 1.000000000000000000 ) ) ;
#211 = CARTESIAN_POINT ( 'NONE',  ( 0.0000000000000000000, -1.041400000000003000, -0.2082800000000063800 ) ) ;
#212 = ORIENTED_EDGE ( 'NONE', *, *, #163, .T. ) ;
#213 = EDGE_CURVE ( 'NONE', #1, #117, #195, .T. ) ;
#214 =( LENGTH_UNIT ( ) NAMED_UNIT ( * ) SI_UNIT ( .MILLI., .METRE. ) );
ENDSEC;
END-ISO-10303-21;
