ISO-10303-21;
HEADER;
FILE_DESCRIPTION (( 'STEP AP214' ),
    '1' );
FILE_NAME ('03-0330.STEP',
    '2020-07-23T06:49:54',
    ( '' ),
    ( '' ),
    'SwSTEP 2.0',
    'SolidWorks 2014',
    '' );
FILE_SCHEMA (( 'AUTOMOTIVE_DESIGN' ));
ENDSEC;

DATA;
#1 = ORIENTED_EDGE ( 'NONE', *, *, #195, .F. ) ;
#2 = EDGE_LOOP ( 'NONE', ( #144, #37, #177, #112 ) ) ;
#3 = EDGE_LOOP ( 'NONE', ( #83, #45, #134, #89 ) ) ;
#4 = CLOSED_SHELL ( 'NONE', ( #184, #168, #118, #150, #163, #197, #90 ) ) ;
#5 = STYLED_ITEM ( 'NONE', ( #47 ), #126 ) ;
#6 = DIRECTION ( 'NONE',  ( -0.0000000000000000000, -5.975642998330594000E-020, 1.000000000000000000 ) ) ;
#7 = CARTESIAN_POINT ( 'NONE',  ( 0.0000000000000000000, 1.191483457437199000E-020, -0.1993900000000103900 ) ) ;
#8 =( NAMED_UNIT ( * ) SI_UNIT ( $, .STERADIAN. ) SOLID_ANGLE_UNIT ( ) );
#9 = DIRECTION ( 'NONE',  ( 0.0000000000000000000, 1.000000000000000000, 5.975642998330496500E-020 ) ) ;
#10 = CARTESIAN_POINT ( 'NONE',  ( 9.767293011279493900E-017, -0.7975599999999888300, 6.096813489576426900E-017 ) ) ;
#11 = SURFACE_SIDE_STYLE ('',( #200 ) ) ;
#12 = EDGE_CURVE ( 'NONE', #167, #32, #101, .T. ) ;
#13 = CARTESIAN_POINT ( 'NONE',  ( 0.0000000000000000000, 0.0000000000000000000, 0.0000000000000000000 ) ) ;
#14 = LINE ( 'NONE', #75, #137 ) ;
#15 = EDGE_LOOP ( 'NONE', ( #132, #91, #1 ) ) ;
#16 = EDGE_CURVE ( 'NONE', #182, #18, #69, .T. ) ;
#17 = LINE ( 'NONE', #10, #172 ) ;
#18 = VERTEX_POINT ( 'NONE', #158 ) ;
#19 = EDGE_CURVE ( 'NONE', #166, #182, #17, .T. ) ;
#20 = VERTEX_POINT ( 'NONE', #81 ) ;
#21 = CARTESIAN_POINT ( 'NONE',  ( 0.0000000000000000000, 0.0000000000000000000, 0.0000000000000000000 ) ) ;
#22 = FILL_AREA_STYLE_COLOUR ( '', #31 ) ;
#23 =( NAMED_UNIT ( * ) PLANE_ANGLE_UNIT ( ) SI_UNIT ( $, .RADIAN. ) );
#24 = DIRECTION ( 'NONE',  ( 0.0000000000000000000, -1.000000000000000000, 0.0000000000000000000 ) ) ;
#25 = DIRECTION ( 'NONE',  ( 0.0000000000000000000, -1.000000000000000000, -5.975642998330592800E-020 ) ) ;
#26 = CONICAL_SURFACE ( 'NONE', #38, 2414.213562373056900, 1.178097245096166900 ) ;
#27 = CARTESIAN_POINT ( 'NONE',  ( 1.220911626409961300E-016, 0.9969500000000062200, -50.79999999999999700 ) ) ;
#28 = AXIS2_PLACEMENT_3D ( 'NONE', #153, #139, #113 ) ;
#29 = DIRECTION ( 'NONE',  ( 8.659560562355017900E-017, -0.7071067811865544600, -0.7071067811865405800 ) ) ;
#30 = CARTESIAN_POINT ( 'NONE',  ( 0.0000000000000000000, -5.669612690978331400E-017, 948.7870497889921400 ) ) ;
#31 = COLOUR_RGB ( '',0.7921568627450980000, 0.8196078431372548800, 0.9333333333333333500 ) ;
#32 = VERTEX_POINT ( 'NONE', #27 ) ;
#33 =( GEOMETRIC_REPRESENTATION_CONTEXT ( 3 ) GLOBAL_UNCERTAINTY_ASSIGNED_CONTEXT ( ( #123 ) ) GLOBAL_UNIT_ASSIGNED_CONTEXT ( ( #156, #59, #8 ) ) REPRESENTATION_CONTEXT ( 'NONE', 'WORKASPACE' ) );
#34 = ORIENTED_EDGE ( 'NONE', *, *, #16, .F. ) ;
#35 = ORIENTED_EDGE ( 'NONE', *, *, #185, .F. ) ;
#36 = SURFACE_STYLE_FILL_AREA ( #170 ) ;
#37 = ORIENTED_EDGE ( 'NONE', *, *, #104, .T. ) ;
#38 = AXIS2_PLACEMENT_3D ( 'NONE', #207, #6, #24 ) ;
#39 = FACE_OUTER_BOUND ( 'NONE', #2, .T. ) ;
#40 = AXIS2_PLACEMENT_3D ( 'NONE', #78, #190, #138 ) ;
#41 = DIRECTION ( 'NONE',  ( -0.0000000000000000000, -5.975642998330594000E-020, 1.000000000000000000 ) ) ;
#42 = FACE_OUTER_BOUND ( 'NONE', #148, .T. ) ;
#43 = SURFACE_STYLE_USAGE ( .BOTH. , #11 ) ;
#44 = CARTESIAN_POINT ( 'NONE',  ( 0.0000000000000000000, 3.035626643151941900E-018, -50.79999999999999700 ) ) ;
#45 = ORIENTED_EDGE ( 'NONE', *, *, #147, .T. ) ;
#46 = CARTESIAN_POINT ( 'NONE',  ( 4.606609261280993000E-050, 3.060303073522625100E-018, -51.21295021100786500 ) ) ;
#47 = PRESENTATION_STYLE_ASSIGNMENT (( #98 ) ) ;
#48 =( NAMED_UNIT ( * ) PLANE_ANGLE_UNIT ( ) SI_UNIT ( $, .RADIAN. ) );
#49 = DIRECTION ( 'NONE',  ( 0.0000000000000000000, -1.000000000000000000, -5.975642998330592800E-020 ) ) ;
#50 = AXIS2_PLACEMENT_3D ( 'NONE', #30, #178, #51 ) ;
#51 = DIRECTION ( 'NONE',  ( 0.0000000000000000000, -1.000000000000000000, 0.0000000000000000000 ) ) ;
#52 = CIRCLE ( 'NONE', #63, 0.9969500000000062200 ) ;
#53 = ORIENTED_EDGE ( 'NONE', *, *, #19, .T. ) ;
#54 = AXIS2_PLACEMENT_3D ( 'NONE', #161, #193, #99 ) ;
#55 = EDGE_CURVE ( 'NONE', #167, #20, #164, .T. ) ;
#56 = FACE_OUTER_BOUND ( 'NONE', #106, .T. ) ;
#57 = AXIS2_PLACEMENT_3D ( 'NONE', #7, #136, #94 ) ;
#58 = CONICAL_SURFACE ( 'NONE', #28, 0.7975599999999888300, 0.7853981633974581600 ) ;
#59 =( NAMED_UNIT ( * ) PLANE_ANGLE_UNIT ( ) SI_UNIT ( $, .RADIAN. ) );
#60 = CARTESIAN_POINT ( 'NONE',  ( 0.0000000000000000000, -3.646086036023513200E-036, 6.101579423406176200E-017 ) ) ;
#61 = CARTESIAN_POINT ( 'NONE',  ( 0.0000000000000000000, 0.7975599999999888300, 6.106345357235924200E-017 ) ) ;
#62 = APPLICATION_PROTOCOL_DEFINITION ( 'draft international standard', 'automotive_design', 1998, #208 ) ;
#63 = AXIS2_PLACEMENT_3D ( 'NONE', #44, #41, #175 ) ;
#64 = DIRECTION ( 'NONE',  ( -0.0000000000000000000, -5.975642998330594000E-020, 1.000000000000000000 ) ) ;
#65 = DIRECTION ( 'NONE',  ( 0.0000000000000000000, 5.975642998330594000E-020, -1.000000000000000000 ) ) ;
#66 = VECTOR ( 'NONE', #191, 1000.000000000000000 ) ;
#67 = AXIS2_PLACEMENT_3D ( 'NONE', #21, #188, #25 ) ;
#68 = EDGE_LOOP ( 'NONE', ( #72, #93, #103, #34 ) ) ;
#69 = CIRCLE ( 'NONE', #120, 0.9969500000000032200 ) ;
#70 = AXIS2_PLACEMENT_3D ( 'NONE', #13, #100, #49 ) ;
#71 = COLOUR_RGB ( '',0.7921568627450980000, 0.8196078431372548800, 0.9333333333333333500 ) ;
#72 = ORIENTED_EDGE ( 'NONE', *, *, #19, .F. ) ;
#73 = APPLICATION_PROTOCOL_DEFINITION ( 'draft international standard', 'automotive_design', 1998, #76 ) ;
#74 = EDGE_CURVE ( 'NONE', #105, #18, #152, .T. ) ;
#75 = CARTESIAN_POINT ( 'NONE',  ( 1.220911626409957600E-016, 0.9969500000000032200, 5.957417287185704100E-020 ) ) ;
#76 = APPLICATION_CONTEXT ( 'automotive_design' ) ;
#77 = DIRECTION ( 'NONE',  ( -0.0000000000000000000, -5.975642998330594000E-020, 1.000000000000000000 ) ) ;
#78 = CARTESIAN_POINT ( 'NONE',  ( 0.0000000000000000000, -3.646086036023513200E-036, 6.101579423406176200E-017 ) ) ;
#79 = ORIENTED_EDGE ( 'NONE', *, *, #185, .T. ) ;
#80 = CARTESIAN_POINT ( 'NONE',  ( 0.0000000000000000000, -0.9969500000000032200, -5.957417287185704100E-020 ) ) ;
#81 = CARTESIAN_POINT ( 'NONE',  ( 0.0000000000000000000, -0.9969500000000062200, -50.79999999999999700 ) ) ;
#82 = CARTESIAN_POINT ( 'NONE',  ( 0.0000000000000000000, 0.9969500000000001100, 6.107536840693361900E-017 ) ) ;
#83 = ORIENTED_EDGE ( 'NONE', *, *, #104, .F. ) ;
#84 = CARTESIAN_POINT ( 'NONE',  ( 1.098820463768953500E-016, -0.7975599999999888300, 6.096813489576426900E-017 ) ) ;
#85 =( GEOMETRIC_REPRESENTATION_CONTEXT ( 3 ) GLOBAL_UNCERTAINTY_ASSIGNED_CONTEXT ( ( #151 ) ) GLOBAL_UNIT_ASSIGNED_CONTEXT ( ( #127, #48, #211 ) ) REPRESENTATION_CONTEXT ( 'NONE', 'WORKASPACE' ) );
#86 = MANIFOLD_SOLID_BREP ( '¸ðµû±â1', #4 ) ;
#87 = VECTOR ( 'NONE', #64, 1000.000000000000000 ) ;
#88 = AXIS2_PLACEMENT_3D ( 'NONE', #82, #65, #114 ) ;
#89 = ORIENTED_EDGE ( 'NONE', *, *, #16, .T. ) ;
#90 = ADVANCED_FACE ( 'NONE', ( #162 ), #58, .T. ) ;
#91 = ORIENTED_EDGE ( 'NONE', *, *, #12, .T. ) ;
#92 = FILL_AREA_STYLE_COLOUR ( '', #71 ) ;
#93 = ORIENTED_EDGE ( 'NONE', *, *, #108, .F. ) ;
#94 = DIRECTION ( 'NONE',  ( 0.0000000000000000000, 1.000000000000000000, 0.0000000000000000000 ) ) ;
#95 = FILL_AREA_STYLE ('',( #22 ) ) ;
#96 =( NAMED_UNIT ( * ) SI_UNIT ( $, .STERADIAN. ) SOLID_ANGLE_UNIT ( ) );
#97 = DIRECTION ( 'NONE',  ( 1.131426112287697800E-016, 0.9238795325112846300, 0.3826834323650950000 ) ) ;
#98 = SURFACE_STYLE_USAGE ( .BOTH. , #160 ) ;
#99 = DIRECTION ( 'NONE',  ( 0.0000000000000000000, -1.000000000000000000, 0.0000000000000000000 ) ) ;
#100 = DIRECTION ( 'NONE',  ( -0.0000000000000000000, -5.975642998330594000E-020, 1.000000000000000000 ) ) ;
#101 = LINE ( 'NONE', #46, #214 ) ;
#102 = ORIENTED_EDGE ( 'NONE', *, *, #108, .T. ) ;
#103 = ORIENTED_EDGE ( 'NONE', *, *, #74, .T. ) ;
#104 = EDGE_CURVE ( 'NONE', #32, #18, #14, .T. ) ;
#105 = VERTEX_POINT ( 'NONE', #174 ) ;
#106 = EDGE_LOOP ( 'NONE', ( #122, #116, #124 ) ) ;
#107 = CARTESIAN_POINT ( 'NONE',  ( 0.0000000000000000000, -0.9969500000000032200, -0.1993900000000103900 ) ) ;
#108 = EDGE_CURVE ( 'NONE', #105, #166, #213, .T. ) ;
#109 = DIRECTION ( 'NONE',  ( -0.0000000000000000000, -5.975642998330594000E-020, 1.000000000000000000 ) ) ;
#110 = DIRECTION ( 'NONE',  ( 0.0000000000000000000, 1.000000000000000000, 5.975642998330496500E-020 ) ) ;
#111 =( LENGTH_UNIT ( ) NAMED_UNIT ( * ) SI_UNIT ( .MILLI., .METRE. ) );
#112 = ORIENTED_EDGE ( 'NONE', *, *, #192, .F. ) ;
#113 = DIRECTION ( 'NONE',  ( 0.0000000000000000000, 1.000000000000000000, 5.975642998330496500E-020 ) ) ;
#114 = DIRECTION ( 'NONE',  ( 0.0000000000000000000, 1.000000000000000000, 5.975642998330594000E-020 ) ) ;
#115 = AXIS2_PLACEMENT_3D ( 'NONE', #60, #206, #9 ) ;
#116 = ORIENTED_EDGE ( 'NONE', *, *, #55, .T. ) ;
#117 = CONICAL_SURFACE ( 'NONE', #50, 2414.213562373056900, 1.178097245096166900 ) ;
#118 = ADVANCED_FACE ( 'NONE', ( #155 ), #26, .T. ) ;
#119 = CIRCLE ( 'NONE', #54, 0.9969500000000062200 ) ;
#120 = AXIS2_PLACEMENT_3D ( 'NONE', #189, #130, #209 ) ;
#121 = VECTOR ( 'NONE', #176, 1000.000000000000000 ) ;
#122 = ORIENTED_EDGE ( 'NONE', *, *, #12, .F. ) ;
#123 = UNCERTAINTY_MEASURE_WITH_UNIT (LENGTH_MEASURE( 1.000000000000000100E-005 ), #156, 'distance_accuracy_value', 'NONE');
#124 = ORIENTED_EDGE ( 'NONE', *, *, #147, .F. ) ;
#125 = PRODUCT_DEFINITION ( 'UNKNOWN', '', #180, #187 ) ;
#126 = ADVANCED_BREP_SHAPE_REPRESENTATION ( '03-0330', ( #86, #142 ), #85 ) ;
#127 =( LENGTH_UNIT ( ) NAMED_UNIT ( * ) SI_UNIT ( .MILLI., .METRE. ) );
#128 = DIRECTION ( 'NONE',  ( 1.000000000000000000, 0.0000000000000000000, 0.0000000000000000000 ) ) ;
#129 = DIRECTION ( 'NONE',  ( 0.0000000000000000000, 0.0000000000000000000, 1.000000000000000000 ) ) ;
#130 = DIRECTION ( 'NONE',  ( 0.0000000000000000000, 5.975642998330594000E-020, -1.000000000000000000 ) ) ;
#131 = CIRCLE ( 'NONE', #57, 0.9969500000000032200 ) ;
#132 = ORIENTED_EDGE ( 'NONE', *, *, #55, .F. ) ;
#133 =( GEOMETRIC_REPRESENTATION_CONTEXT ( 3 ) GLOBAL_UNCERTAINTY_ASSIGNED_CONTEXT ( ( #181 ) ) GLOBAL_UNIT_ASSIGNED_CONTEXT ( ( #111, #23, #96 ) ) REPRESENTATION_CONTEXT ( 'NONE', 'WORKASPACE' ) );
#134 = ORIENTED_EDGE ( 'NONE', *, *, #192, .T. ) ;
#135 = AXIS2_PLACEMENT_3D ( 'NONE', #173, #77, #110 ) ;
#136 = DIRECTION ( 'NONE',  ( 0.0000000000000000000, 5.975642998330594000E-020, -1.000000000000000000 ) ) ;
#137 = VECTOR ( 'NONE', #109, 1000.000000000000000 ) ;
#138 = DIRECTION ( 'NONE',  ( 0.0000000000000000000, 1.000000000000000000, 5.975642998330496500E-020 ) ) ;
#139 = DIRECTION ( 'NONE',  ( 0.0000000000000000000, 5.975642998330594000E-020, -1.000000000000000000 ) ) ;
#140 = CARTESIAN_POINT ( 'NONE',  ( 0.0000000000000000000, 3.060303073522624300E-018, -51.21295021100786500 ) ) ;
#141 = PLANE ( 'NONE',  #88 ) ;
#142 = AXIS2_PLACEMENT_3D ( 'NONE', #157, #129, #128 ) ;
#143 = LINE ( 'NONE', #80, #87 ) ;
#144 = ORIENTED_EDGE ( 'NONE', *, *, #195, .T. ) ;
#145 = PRODUCT ( '03-0330', '03-0330', '', ( #154 ) ) ;
#146 = PRODUCT_DEFINITION_SHAPE ( 'NONE', 'NONE',  #125 ) ;
#147 = EDGE_CURVE ( 'NONE', #32, #20, #119, .T. ) ;
#148 = EDGE_LOOP ( 'NONE', ( #35, #53, #205, #202 ) ) ;
#149 = FACE_OUTER_BOUND ( 'NONE', #3, .T. ) ;
#150 = ADVANCED_FACE ( 'NONE', ( #194 ), #141, .F. ) ;
#151 = UNCERTAINTY_MEASURE_WITH_UNIT (LENGTH_MEASURE( 1.000000000000000100E-005 ), #127, 'distance_accuracy_value', 'NONE');
#152 = LINE ( 'NONE', #61, #66 ) ;
#153 = CARTESIAN_POINT ( 'NONE',  ( 0.0000000000000000000, -3.646086036023513200E-036, 6.101579423406176200E-017 ) ) ;
#154 = PRODUCT_CONTEXT ( 'NONE', #76, 'mechanical' ) ;
#155 = FACE_OUTER_BOUND ( 'NONE', #15, .T. ) ;
#156 =( LENGTH_UNIT ( ) NAMED_UNIT ( * ) SI_UNIT ( .MILLI., .METRE. ) );
#157 = CARTESIAN_POINT ( 'NONE',  ( 0.0000000000000000000, 0.0000000000000000000, 0.0000000000000000000 ) ) ;
#158 = CARTESIAN_POINT ( 'NONE',  ( 1.220911626409957600E-016, 0.9969500000000032200, -0.1993900000000103900 ) ) ;
#159 = PRESENTATION_LAYER_ASSIGNMENT (  '', '', ( #5 ) ) ;
#160 = SURFACE_SIDE_STYLE ('',( #36 ) ) ;
#161 = CARTESIAN_POINT ( 'NONE',  ( 0.0000000000000000000, 3.035626643151941900E-018, -50.79999999999999700 ) ) ;
#162 = FACE_OUTER_BOUND ( 'NONE', #68, .T. ) ;
#163 = ADVANCED_FACE ( 'NONE', ( #56 ), #117, .T. ) ;
#164 = LINE ( 'NONE', #140, #121 ) ;
#165 = PRESENTATION_LAYER_ASSIGNMENT (  '', '', ( #171 ) ) ;
#166 = VERTEX_POINT ( 'NONE', #84 ) ;
#167 = VERTEX_POINT ( 'NONE', #179 ) ;
#168 = ADVANCED_FACE ( 'NONE', ( #39 ), #204, .T. ) ;
#169 = EDGE_LOOP ( 'NONE', ( #102, #79 ) ) ;
#170 = FILL_AREA_STYLE ('',( #92 ) ) ;
#171 = STYLED_ITEM ( 'NONE', ( #183 ), #86 ) ;
#172 = VECTOR ( 'NONE', #29, 1000.000000000000000 ) ;
#173 = CARTESIAN_POINT ( 'NONE',  ( 0.0000000000000000000, -3.646086036023513200E-036, 6.101579423406176200E-017 ) ) ;
#174 = CARTESIAN_POINT ( 'NONE',  ( 0.0000000000000000000, 0.7975599999999888300, 6.106345357235924200E-017 ) ) ;
#175 = DIRECTION ( 'NONE',  ( 0.0000000000000000000, -1.000000000000000000, 0.0000000000000000000 ) ) ;
#176 = DIRECTION ( 'NONE',  ( 0.0000000000000000000, -0.9238795325112846300, 0.3826834323650950000 ) ) ;
#177 = ORIENTED_EDGE ( 'NONE', *, *, #203, .T. ) ;
#178 = DIRECTION ( 'NONE',  ( -0.0000000000000000000, -5.975642998330594000E-020, 1.000000000000000000 ) ) ;
#179 = CARTESIAN_POINT ( 'NONE',  ( 0.0000000000000000000, 3.060303073522624300E-018, -51.21295021100786500 ) ) ;
#180 = PRODUCT_DEFINITION_FORMATION_WITH_SPECIFIED_SOURCE ( 'ANY', '', #145, .NOT_KNOWN. ) ;
#181 = UNCERTAINTY_MEASURE_WITH_UNIT (LENGTH_MEASURE( 1.000000000000000100E-005 ), #111, 'distance_accuracy_value', 'NONE');
#182 = VERTEX_POINT ( 'NONE', #107 ) ;
#183 = PRESENTATION_STYLE_ASSIGNMENT (( #43 ) ) ;
#184 = ADVANCED_FACE ( 'NONE', ( #42 ), #201, .T. ) ;
#185 = EDGE_CURVE ( 'NONE', #166, #105, #212, .T. ) ;
#186 = PRODUCT_RELATED_PRODUCT_CATEGORY ( 'part', '', ( #145 ) ) ;
#187 = PRODUCT_DEFINITION_CONTEXT ( 'detailed design', #208, 'design' ) ;
#188 = DIRECTION ( 'NONE',  ( -0.0000000000000000000, -5.975642998330594000E-020, 1.000000000000000000 ) ) ;
#189 = CARTESIAN_POINT ( 'NONE',  ( 0.0000000000000000000, 1.191483457437199000E-020, -0.1993900000000103900 ) ) ;
#190 = DIRECTION ( 'NONE',  ( 0.0000000000000000000, 5.975642998330594000E-020, -1.000000000000000000 ) ) ;
#191 = DIRECTION ( 'NONE',  ( 0.0000000000000000000, 0.7071067811865544600, -0.7071067811865405800 ) ) ;
#192 = EDGE_CURVE ( 'NONE', #20, #182, #143, .T. ) ;
#193 = DIRECTION ( 'NONE',  ( -0.0000000000000000000, -5.975642998330594000E-020, 1.000000000000000000 ) ) ;
#194 = FACE_OUTER_BOUND ( 'NONE', #169, .T. ) ;
#195 = EDGE_CURVE ( 'NONE', #20, #32, #52, .T. ) ;
#196 = SHAPE_DEFINITION_REPRESENTATION ( #146, #126 ) ;
#197 = ADVANCED_FACE ( 'NONE', ( #149 ), #199, .T. ) ;
#198 = MECHANICAL_DESIGN_GEOMETRIC_PRESENTATION_REPRESENTATION (  '', ( #5 ), #133 ) ;
#199 = CYLINDRICAL_SURFACE ( 'NONE', #67, 0.9969500000000032200 ) ;
#200 = SURFACE_STYLE_FILL_AREA ( #95 ) ;
#201 = CONICAL_SURFACE ( 'NONE', #40, 0.7975599999999888300, 0.7853981633974581600 ) ;
#202 = ORIENTED_EDGE ( 'NONE', *, *, #74, .F. ) ;
#203 = EDGE_CURVE ( 'NONE', #18, #182, #131, .T. ) ;
#204 = CYLINDRICAL_SURFACE ( 'NONE', #70, 0.9969500000000032200 ) ;
#205 = ORIENTED_EDGE ( 'NONE', *, *, #203, .F. ) ;
#206 = DIRECTION ( 'NONE',  ( -0.0000000000000000000, -5.975642998330594000E-020, 1.000000000000000000 ) ) ;
#207 = CARTESIAN_POINT ( 'NONE',  ( 0.0000000000000000000, -5.669612690978331400E-017, 948.7870497889921400 ) ) ;
#208 = APPLICATION_CONTEXT ( 'automotive_design' ) ;
#209 = DIRECTION ( 'NONE',  ( 0.0000000000000000000, 1.000000000000000000, 0.0000000000000000000 ) ) ;
#210 = MECHANICAL_DESIGN_GEOMETRIC_PRESENTATION_REPRESENTATION (  '', ( #171 ), #33 ) ;
#211 =( NAMED_UNIT ( * ) SI_UNIT ( $, .STERADIAN. ) SOLID_ANGLE_UNIT ( ) );
#212 = CIRCLE ( 'NONE', #115, 0.7975599999999888300 ) ;
#213 = CIRCLE ( 'NONE', #135, 0.7975599999999888300 ) ;
#214 = VECTOR ( 'NONE', #97, 1000.000000000000000 ) ;
ENDSEC;
END-ISO-10303-21;
