ISO-10303-21;
HEADER;
FILE_DESCRIPTION (( 'STEP AP214' ),
    '1' );
FILE_NAME ('03-0331.STEP',
    '2020-07-23T06:50:34',
    ( '' ),
    ( '' ),
    'SwSTEP 2.0',
    'SolidWorks 2014',
    '' );
FILE_SCHEMA (( 'AUTOMOTIVE_DESIGN' ));
ENDSEC;

DATA;
#1 = ORIENTED_EDGE ( 'NONE', *, *, #103, .F. ) ;
#2 = EDGE_CURVE ( 'NONE', #3, #138, #129, .T. ) ;
#3 = VERTEX_POINT ( 'NONE', #152 ) ;
#4 = DIRECTION ( 'NONE',  ( -0.0000000000000000000, 6.386585799662854900E-020, 1.000000000000000000 ) ) ;
#5 = CARTESIAN_POINT ( 'NONE',  ( 0.0000000000000000000, 0.0000000000000000000, 0.0000000000000000000 ) ) ;
#6 = ADVANCED_FACE ( 'NONE', ( #171 ), #49, .T. ) ;
#7 = FACE_OUTER_BOUND ( 'NONE', #58, .T. ) ;
#8 = FILL_AREA_STYLE_COLOUR ( '', #111 ) ;
#9 = VERTEX_POINT ( 'NONE', #213 ) ;
#10 = CARTESIAN_POINT ( 'NONE',  ( 0.0000000000000000000, 0.0000000000000000000, 0.0000000000000000000 ) ) ;
#11 =( GEOMETRIC_REPRESENTATION_CONTEXT ( 3 ) GLOBAL_UNCERTAINTY_ASSIGNED_CONTEXT ( ( #64 ) ) GLOBAL_UNIT_ASSIGNED_CONTEXT ( ( #92, #40, #94 ) ) REPRESENTATION_CONTEXT ( 'NONE', 'WORKASPACE' ) );
#12 = ORIENTED_EDGE ( 'NONE', *, *, #96, .T. ) ;
#13 = LINE ( 'NONE', #185, #188 ) ;
#14 = AXIS2_PLACEMENT_3D ( 'NONE', #207, #176, #192 ) ;
#15 = DIRECTION ( 'NONE',  ( 0.0000000000000000000, 1.000000000000000000, -6.386585799662114600E-020 ) ) ;
#16 = ORIENTED_EDGE ( 'NONE', *, *, #43, .F. ) ;
#17 = CYLINDRICAL_SURFACE ( 'NONE', #116, 0.9652000000000031700 ) ;
#18 = AXIS2_PLACEMENT_3D ( 'NONE', #139, #36, #53 ) ;
#19 =( LENGTH_UNIT ( ) NAMED_UNIT ( * ) SI_UNIT ( .MILLI., .METRE. ) );
#20 = CARTESIAN_POINT ( 'NONE',  ( 0.0000000000000000000, 0.0000000000000000000, 0.0000000000000000000 ) ) ;
#21 = DIRECTION ( 'NONE',  ( 0.0000000000000000000, 1.000000000000000000, -6.386585799662114600E-020 ) ) ;
#22 = VERTEX_POINT ( 'NONE', #35 ) ;
#23 = SURFACE_STYLE_FILL_AREA ( #25 ) ;
#24 = ORIENTED_EDGE ( 'NONE', *, *, #164, .T. ) ;
#25 = FILL_AREA_STYLE ('',( #8 ) ) ;
#26 = EDGE_CURVE ( 'NONE', #63, #22, #42, .T. ) ;
#27 = DIRECTION ( 'NONE',  ( 0.0000000000000000000, -0.9238795325112850700, 0.3826834323650937200 ) ) ;
#28 = ORIENTED_EDGE ( 'NONE', *, *, #26, .F. ) ;
#29 = PRODUCT_DEFINITION ( 'UNKNOWN', '', #182, #160 ) ;
#30 = VECTOR ( 'NONE', #27, 1000.000000000000200 ) ;
#31 = AXIS2_PLACEMENT_3D ( 'NONE', #126, #124, #21 ) ;
#32 = DIRECTION ( 'NONE',  ( 0.0000000000000000000, -1.000000000000000000, 0.0000000000000000000 ) ) ;
#33 = CARTESIAN_POINT ( 'NONE',  ( 0.0000000000000000000, -3.269919087945020800E-018, -51.19979893040251500 ) ) ;
#34 = CARTESIAN_POINT ( 'NONE',  ( 0.0000000000000000000, 3.776533554162878900E-036, 5.913227618992044800E-017 ) ) ;
#35 = CARTESIAN_POINT ( 'NONE',  ( 1.182029090537029200E-016, 0.9652000000000031700, -0.1930399999999983500 ) ) ;
#36 = DIRECTION ( 'NONE',  ( 0.0000000000000000000, -6.386585799662854900E-020, -1.000000000000000000 ) ) ;
#37 = PRODUCT_CONTEXT ( 'NONE', #101, 'mechanical' ) ;
#38 = SURFACE_STYLE_FILL_AREA ( #122 ) ;
#39 = EDGE_CURVE ( 'NONE', #9, #22, #93, .T. ) ;
#40 =( NAMED_UNIT ( * ) PLANE_ANGLE_UNIT ( ) SI_UNIT ( $, .RADIAN. ) );
#41 = ORIENTED_EDGE ( 'NONE', *, *, #79, .F. ) ;
#42 = LINE ( 'NONE', #157, #208 ) ;
#43 = EDGE_CURVE ( 'NONE', #3, #9, #133, .T. ) ;
#44 = ORIENTED_EDGE ( 'NONE', *, *, #45, .T. ) ;
#45 = EDGE_CURVE ( 'NONE', #22, #9, #211, .T. ) ;
#46 = DIRECTION ( 'NONE',  ( 0.0000000000000000000, -1.000000000000000000, 0.0000000000000000000 ) ) ;
#47 = DIRECTION ( 'NONE',  ( -0.0000000000000000000, 6.386585799662854900E-020, 1.000000000000000000 ) ) ;
#48 =( NAMED_UNIT ( * ) SI_UNIT ( $, .STERADIAN. ) SOLID_ANGLE_UNIT ( ) );
#49 = CONICAL_SURFACE ( 'NONE', #193, 2414.213562373065500, 1.178097245096168200 ) ;
#50 = DIRECTION ( 'NONE',  ( 0.0000000000000000000, -6.386585799662854900E-020, -1.000000000000000000 ) ) ;
#51 = ORIENTED_EDGE ( 'NONE', *, *, #140, .T. ) ;
#52 = PRODUCT ( '03-0331', '03-0331', '', ( #37 ) ) ;
#53 = DIRECTION ( 'NONE',  ( 0.0000000000000000000, 1.000000000000000000, 0.0000000000000000000 ) ) ;
#54 =( NAMED_UNIT ( * ) PLANE_ANGLE_UNIT ( ) SI_UNIT ( $, .RADIAN. ) );
#55 = DIRECTION ( 'NONE',  ( 0.0000000000000000000, 1.000000000000000000, -6.386585799662854900E-020 ) ) ;
#56 = ADVANCED_FACE ( 'NONE', ( #180 ), #172, .F. ) ;
#57 = EDGE_LOOP ( 'NONE', ( #12, #77 ) ) ;
#58 = EDGE_LOOP ( 'NONE', ( #194, #177, #44, #16 ) ) ;
#59 = AXIS2_PLACEMENT_3D ( 'NONE', #98, #119, #32 ) ;
#60 = FACE_OUTER_BOUND ( 'NONE', #118, .T. ) ;
#61 = CONICAL_SURFACE ( 'NONE', #14, 0.7721600000000008500, 0.7853981633974583800 ) ;
#62 = EDGE_CURVE ( 'NONE', #138, #3, #81, .T. ) ;
#63 = VERTEX_POINT ( 'NONE', #142 ) ;
#64 = UNCERTAINTY_MEASURE_WITH_UNIT (LENGTH_MEASURE( 1.000000000000000100E-005 ), #92, 'distance_accuracy_value', 'NONE');
#65 = FACE_OUTER_BOUND ( 'NONE', #71, .T. ) ;
#66 = VECTOR ( 'NONE', #110, 1000.000000000000200 ) ;
#67 = AXIS2_PLACEMENT_3D ( 'NONE', #123, #198, #55 ) ;
#68 = ORIENTED_EDGE ( 'NONE', *, *, #199, .F. ) ;
#69 = VECTOR ( 'NONE', #100, 1000.000000000000000 ) ;
#70 = DIRECTION ( 'NONE',  ( 8.659560562355019100E-017, -0.7071067811865546800, -0.7071067811865404700 ) ) ;
#71 = EDGE_LOOP ( 'NONE', ( #108, #51, #153 ) ) ;
#72 = PRESENTATION_LAYER_ASSIGNMENT (  '', '', ( #131 ) ) ;
#73 = DIRECTION ( 'NONE',  ( 0.0000000000000000000, -1.000000000000000000, 6.386585799662853600E-020 ) ) ;
#74 = FACE_OUTER_BOUND ( 'NONE', #196, .T. ) ;
#75 = APPLICATION_PROTOCOL_DEFINITION ( 'draft international standard', 'automotive_design', 1998, #101 ) ;
#76 = DIRECTION ( 'NONE',  ( -0.0000000000000000000, 6.386585799662854900E-020, 1.000000000000000000 ) ) ;
#77 = ORIENTED_EDGE ( 'NONE', *, *, #79, .T. ) ;
#78 = LINE ( 'NONE', #130, #30 ) ;
#79 = EDGE_CURVE ( 'NONE', #88, #63, #175, .T. ) ;
#80 = SURFACE_STYLE_USAGE ( .BOTH. , #128 ) ;
#81 = CIRCLE ( 'NONE', #109, 0.9652000000000062800 ) ;
#82 = PRODUCT_DEFINITION_SHAPE ( 'NONE', 'NONE',  #29 ) ;
#83 = CARTESIAN_POINT ( 'NONE',  ( 0.0000000000000000000, 6.059593890868353000E-017, 948.8002010695975100 ) ) ;
#84 = CARTESIAN_POINT ( 'NONE',  ( 1.182029090537029200E-016, 0.9652000000000031700, -6.164332613834607000E-020 ) ) ;
#85 = FILL_AREA_STYLE_COLOUR ( '', #132 ) ;
#86 = VECTOR ( 'NONE', #102, 1000.000000000000000 ) ;
#87 = DIRECTION ( 'NONE',  ( 0.0000000000000000000, 0.7071067811865546800, -0.7071067811865404700 ) ) ;
#88 = VERTEX_POINT ( 'NONE', #205 ) ;
#89 = CARTESIAN_POINT ( 'NONE',  ( 0.0000000000000000000, -1.232866522766907000E-020, -0.1930399999999983500 ) ) ;
#90 = ADVANCED_FACE ( 'NONE', ( #7 ), #17, .T. ) ;
#91 = ADVANCED_FACE ( 'NONE', ( #201 ), #114, .T. ) ;
#92 =( LENGTH_UNIT ( ) NAMED_UNIT ( * ) SI_UNIT ( .MILLI., .METRE. ) );
#93 = CIRCLE ( 'NONE', #18, 0.9652000000000031700 ) ;
#94 =( NAMED_UNIT ( * ) SI_UNIT ( $, .STERADIAN. ) SOLID_ANGLE_UNIT ( ) );
#95 = ORIENTED_EDGE ( 'NONE', *, *, #43, .T. ) ;
#96 = EDGE_CURVE ( 'NONE', #63, #88, #105, .T. ) ;
#97 = EDGE_LOOP ( 'NONE', ( #1, #203, #95, #99 ) ) ;
#98 = CARTESIAN_POINT ( 'NONE',  ( 0.0000000000000000000, -3.244385586228730400E-018, -50.79999999999999700 ) ) ;
#99 = ORIENTED_EDGE ( 'NONE', *, *, #39, .T. ) ;
#100 = DIRECTION ( 'NONE',  ( -0.0000000000000000000, 6.386585799662854900E-020, 1.000000000000000000 ) ) ;
#101 = APPLICATION_CONTEXT ( 'automotive_design' ) ;
#102 = DIRECTION ( 'NONE',  ( -0.0000000000000000000, 6.386585799662854900E-020, 1.000000000000000000 ) ) ;
#103 = EDGE_CURVE ( 'NONE', #138, #22, #163, .T. ) ;
#104 = ADVANCED_FACE ( 'NONE', ( #65 ), #150, .T. ) ;
#105 = CIRCLE ( 'NONE', #112, 0.7721600000000008500 ) ;
#106 = DIRECTION ( 'NONE',  ( -0.0000000000000000000, 6.386585799662854900E-020, 1.000000000000000000 ) ) ;
#107 = CARTESIAN_POINT ( 'NONE',  ( 0.0000000000000000000, -3.244385586228730400E-018, -50.79999999999999700 ) ) ;
#108 = ORIENTED_EDGE ( 'NONE', *, *, #164, .F. ) ;
#109 = AXIS2_PLACEMENT_3D ( 'NONE', #107, #106, #159 ) ;
#110 = DIRECTION ( 'NONE',  ( 1.131426112287698300E-016, 0.9238795325112850700, 0.3826834323650937200 ) ) ;
#111 = COLOUR_RGB ( '',0.7921568627450980000, 0.8196078431372548800, 0.9333333333333333500 ) ;
#112 = AXIS2_PLACEMENT_3D ( 'NONE', #184, #47, #15 ) ;
#113 = ORIENTED_EDGE ( 'NONE', *, *, #26, .T. ) ;
#114 = CYLINDRICAL_SURFACE ( 'NONE', #125, 0.9652000000000031700 ) ;
#115 = APPLICATION_CONTEXT ( 'automotive_design' ) ;
#116 = AXIS2_PLACEMENT_3D ( 'NONE', #5, #76, #143 ) ;
#117 = UNCERTAINTY_MEASURE_WITH_UNIT (LENGTH_MEASURE( 1.000000000000000100E-005 ), #19, 'distance_accuracy_value', 'NONE');
#118 = EDGE_LOOP ( 'NONE', ( #68, #162, #113, #200 ) ) ;
#119 = DIRECTION ( 'NONE',  ( -0.0000000000000000000, 6.386585799662854900E-020, 1.000000000000000000 ) ) ;
#120 = DIRECTION ( 'NONE',  ( 0.0000000000000000000, 1.000000000000000000, -6.386585799662114600E-020 ) ) ;
#121 =( GEOMETRIC_REPRESENTATION_CONTEXT ( 3 ) GLOBAL_UNCERTAINTY_ASSIGNED_CONTEXT ( ( #178 ) ) GLOBAL_UNIT_ASSIGNED_CONTEXT ( ( #169, #54, #174 ) ) REPRESENTATION_CONTEXT ( 'NONE', 'WORKASPACE' ) );
#122 = FILL_AREA_STYLE ('',( #85 ) ) ;
#123 = CARTESIAN_POINT ( 'NONE',  ( 0.0000000000000000000, 0.9652000000000000600, 5.907063286378211000E-017 ) ) ;
#124 = DIRECTION ( 'NONE',  ( -0.0000000000000000000, 6.386585799662854900E-020, 1.000000000000000000 ) ) ;
#125 = AXIS2_PLACEMENT_3D ( 'NONE', #20, #4, #73 ) ;
#126 = CARTESIAN_POINT ( 'NONE',  ( 0.0000000000000000000, 3.776533554162878900E-036, 5.913227618992044800E-017 ) ) ;
#127 = ADVANCED_FACE ( 'NONE', ( #60 ), #158, .T. ) ;
#128 = SURFACE_SIDE_STYLE ('',( #23 ) ) ;
#129 = CIRCLE ( 'NONE', #59, 0.9652000000000062800 ) ;
#130 = CARTESIAN_POINT ( 'NONE',  ( 0.0000000000000000000, -3.269919087945022300E-018, -51.19979893040251500 ) ) ;
#131 = STYLED_ITEM ( 'NONE', ( #209 ), #165 ) ;
#132 = COLOUR_RGB ( '',0.7921568627450980000, 0.8196078431372548800, 0.9333333333333333500 ) ;
#133 = LINE ( 'NONE', #204, #86 ) ;
#134 = VERTEX_POINT ( 'NONE', #33 ) ;
#135 = DIRECTION ( 'NONE',  ( -0.0000000000000000000, 6.386585799662854900E-020, 1.000000000000000000 ) ) ;
#136 = DIRECTION ( 'NONE',  ( 0.0000000000000000000, -1.000000000000000000, 0.0000000000000000000 ) ) ;
#137 = DIRECTION ( 'NONE',  ( -0.0000000000000000000, 6.386585799662854900E-020, 1.000000000000000000 ) ) ;
#138 = VERTEX_POINT ( 'NONE', #168 ) ;
#139 = CARTESIAN_POINT ( 'NONE',  ( 0.0000000000000000000, -1.232866522766907000E-020, -0.1930399999999983500 ) ) ;
#140 = EDGE_CURVE ( 'NONE', #134, #3, #78, .T. ) ;
#141 =( NAMED_UNIT ( * ) PLANE_ANGLE_UNIT ( ) SI_UNIT ( $, .RADIAN. ) );
#142 = CARTESIAN_POINT ( 'NONE',  ( 0.0000000000000000000, 0.7721600000000008500, 5.908296152900978500E-017 ) ) ;
#143 = DIRECTION ( 'NONE',  ( 0.0000000000000000000, -1.000000000000000000, 6.386585799662853600E-020 ) ) ;
#144 = ORIENTED_EDGE ( 'NONE', *, *, #45, .F. ) ;
#145 = MANIFOLD_SOLID_BREP ( '¸ðµû±â1', #181 ) ;
#146 = SHAPE_DEFINITION_REPRESENTATION ( #82, #165 ) ;
#147 = ORIENTED_EDGE ( 'NONE', *, *, #199, .T. ) ;
#148 = APPLICATION_PROTOCOL_DEFINITION ( 'draft international standard', 'automotive_design', 1998, #115 ) ;
#149 = AXIS2_PLACEMENT_3D ( 'NONE', #34, #50, #120 ) ;
#150 = CONICAL_SURFACE ( 'NONE', #210, 2414.213562373065500, 1.178097245096168200 ) ;
#151 = LINE ( 'NONE', #206, #66 ) ;
#152 = CARTESIAN_POINT ( 'NONE',  ( 0.0000000000000000000, -0.9652000000000061600, -50.79999999999999700 ) ) ;
#153 = ORIENTED_EDGE ( 'NONE', *, *, #62, .F. ) ;
#154 = SURFACE_SIDE_STYLE ('',( #38 ) ) ;
#155 = MECHANICAL_DESIGN_GEOMETRIC_PRESENTATION_REPRESENTATION (  '', ( #131 ), #121 ) ;
#156 = DIRECTION ( 'NONE',  ( 0.0000000000000000000, 0.0000000000000000000, 1.000000000000000000 ) ) ;
#157 = CARTESIAN_POINT ( 'NONE',  ( 0.0000000000000000000, 0.7721600000000008500, 5.908296152900978500E-017 ) ) ;
#158 = CONICAL_SURFACE ( 'NONE', #149, 0.7721600000000008500, 0.7853981633974583800 ) ;
#159 = DIRECTION ( 'NONE',  ( 0.0000000000000000000, -1.000000000000000000, 0.0000000000000000000 ) ) ;
#160 = PRODUCT_DEFINITION_CONTEXT ( 'detailed design', #115, 'design' ) ;
#161 = AXIS2_PLACEMENT_3D ( 'NONE', #89, #167, #183 ) ;
#162 = ORIENTED_EDGE ( 'NONE', *, *, #96, .F. ) ;
#163 = LINE ( 'NONE', #84, #69 ) ;
#164 = EDGE_CURVE ( 'NONE', #134, #138, #151, .T. ) ;
#165 = ADVANCED_BREP_SHAPE_REPRESENTATION ( '03-0331', ( #145, #173 ), #197 ) ;
#166 = STYLED_ITEM ( 'NONE', ( #195 ), #145 ) ;
#167 = DIRECTION ( 'NONE',  ( 0.0000000000000000000, -6.386585799662854900E-020, -1.000000000000000000 ) ) ;
#168 = CARTESIAN_POINT ( 'NONE',  ( 1.182029090537032900E-016, 0.9652000000000061600, -50.79999999999999700 ) ) ;
#169 =( LENGTH_UNIT ( ) NAMED_UNIT ( * ) SI_UNIT ( .MILLI., .METRE. ) );
#170 = DIRECTION ( 'NONE',  ( 1.000000000000000000, 0.0000000000000000000, 0.0000000000000000000 ) ) ;
#171 = FACE_OUTER_BOUND ( 'NONE', #186, .T. ) ;
#172 = PLANE ( 'NONE',  #67 ) ;
#173 = AXIS2_PLACEMENT_3D ( 'NONE', #10, #156, #170 ) ;
#174 =( NAMED_UNIT ( * ) SI_UNIT ( $, .STERADIAN. ) SOLID_ANGLE_UNIT ( ) );
#175 = CIRCLE ( 'NONE', #31, 0.7721600000000008500 ) ;
#176 = DIRECTION ( 'NONE',  ( 0.0000000000000000000, -6.386585799662854900E-020, -1.000000000000000000 ) ) ;
#177 = ORIENTED_EDGE ( 'NONE', *, *, #103, .T. ) ;
#178 = UNCERTAINTY_MEASURE_WITH_UNIT (LENGTH_MEASURE( 1.000000000000000100E-005 ), #169, 'distance_accuracy_value', 'NONE');
#179 = PRESENTATION_LAYER_ASSIGNMENT (  '', '', ( #166 ) ) ;
#180 = FACE_OUTER_BOUND ( 'NONE', #57, .T. ) ;
#181 = CLOSED_SHELL ( 'NONE', ( #191, #90, #6, #56, #104, #91, #127 ) ) ;
#182 = PRODUCT_DEFINITION_FORMATION_WITH_SPECIFIED_SOURCE ( 'ANY', '', #52, .NOT_KNOWN. ) ;
#183 = DIRECTION ( 'NONE',  ( 0.0000000000000000000, 1.000000000000000000, 0.0000000000000000000 ) ) ;
#184 = CARTESIAN_POINT ( 'NONE',  ( 0.0000000000000000000, 3.776533554162878900E-036, 5.913227618992044800E-017 ) ) ;
#185 = CARTESIAN_POINT ( 'NONE',  ( 9.456232724296213800E-017, -0.7721600000000008500, 5.918159085083112300E-017 ) ) ;
#186 = EDGE_LOOP ( 'NONE', ( #212, #24, #190 ) ) ;
#187 = SURFACE_STYLE_USAGE ( .BOTH. , #154 ) ;
#188 = VECTOR ( 'NONE', #70, 1000.000000000000100 ) ;
#189 = MECHANICAL_DESIGN_GEOMETRIC_PRESENTATION_REPRESENTATION (  '', ( #166 ), #11 ) ;
#190 = ORIENTED_EDGE ( 'NONE', *, *, #2, .F. ) ;
#191 = ADVANCED_FACE ( 'NONE', ( #74 ), #61, .T. ) ;
#192 = DIRECTION ( 'NONE',  ( 0.0000000000000000000, 1.000000000000000000, -6.386585799662114600E-020 ) ) ;
#193 = AXIS2_PLACEMENT_3D ( 'NONE', #83, #135, #46 ) ;
#194 = ORIENTED_EDGE ( 'NONE', *, *, #2, .T. ) ;
#195 = PRESENTATION_STYLE_ASSIGNMENT (( #80 ) ) ;
#196 = EDGE_LOOP ( 'NONE', ( #41, #147, #144, #28 ) ) ;
#197 =( GEOMETRIC_REPRESENTATION_CONTEXT ( 3 ) GLOBAL_UNCERTAINTY_ASSIGNED_CONTEXT ( ( #117 ) ) GLOBAL_UNIT_ASSIGNED_CONTEXT ( ( #19, #141, #48 ) ) REPRESENTATION_CONTEXT ( 'NONE', 'WORKASPACE' ) );
#198 = DIRECTION ( 'NONE',  ( 0.0000000000000000000, -6.386585799662854900E-020, -1.000000000000000000 ) ) ;
#199 = EDGE_CURVE ( 'NONE', #88, #9, #13, .T. ) ;
#200 = ORIENTED_EDGE ( 'NONE', *, *, #39, .F. ) ;
#201 = FACE_OUTER_BOUND ( 'NONE', #97, .T. ) ;
#202 = CARTESIAN_POINT ( 'NONE',  ( 0.0000000000000000000, 6.059593890868353000E-017, 948.8002010695975100 ) ) ;
#203 = ORIENTED_EDGE ( 'NONE', *, *, #62, .T. ) ;
#204 = CARTESIAN_POINT ( 'NONE',  ( 0.0000000000000000000, -0.9652000000000031700, 6.164332613834607000E-020 ) ) ;
#205 = CARTESIAN_POINT ( 'NONE',  ( 1.063826181483325300E-016, -0.7721600000000008500, 5.918159085083112300E-017 ) ) ;
#206 = CARTESIAN_POINT ( 'NONE',  ( 9.213218522561986100E-050, -3.269919087945020800E-018, -51.19979893040251500 ) ) ;
#207 = CARTESIAN_POINT ( 'NONE',  ( 0.0000000000000000000, 3.776533554162878900E-036, 5.913227618992044800E-017 ) ) ;
#208 = VECTOR ( 'NONE', #87, 1000.000000000000100 ) ;
#209 = PRESENTATION_STYLE_ASSIGNMENT (( #187 ) ) ;
#210 = AXIS2_PLACEMENT_3D ( 'NONE', #202, #137, #136 ) ;
#211 = CIRCLE ( 'NONE', #161, 0.9652000000000031700 ) ;
#212 = ORIENTED_EDGE ( 'NONE', *, *, #140, .F. ) ;
#213 = CARTESIAN_POINT ( 'NONE',  ( 0.0000000000000000000, -0.9652000000000031700, -0.1930399999999983500 ) ) ;
#214 = PRODUCT_RELATED_PRODUCT_CATEGORY ( 'part', '', ( #52 ) ) ;
ENDSEC;
END-ISO-10303-21;
