ISO-10303-21;
HEADER;
FILE_DESCRIPTION (( 'STEP AP214' ),
    '1' );
FILE_NAME ('03-0332.STEP',
    '2020-07-23T06:51:15',
    ( '' ),
    ( '' ),
    'SwSTEP 2.0',
    'SolidWorks 2014',
    '' );
FILE_SCHEMA (( 'AUTOMOTIVE_DESIGN' ));
ENDSEC;

DATA;
#1 = DIRECTION ( 'NONE',  ( -0.0000000000000000000, 6.030210905287077200E-020, 1.000000000000000000 ) ) ;
#2 = DIRECTION ( 'NONE',  ( 0.0000000000000000000, 1.000000000000000000, -6.030210905287370900E-020 ) ) ;
#3 = FILL_AREA_STYLE_COLOUR ( '', #83 ) ;
#4 = AXIS2_PLACEMENT_3D ( 'NONE', #68, #147, #31 ) ;
#5 = ORIENTED_EDGE ( 'NONE', *, *, #161, .T. ) ;
#6 = ORIENTED_EDGE ( 'NONE', *, *, #182, .T. ) ;
#7 = AXIS2_PLACEMENT_3D ( 'NONE', #17, #124, #56 ) ;
#8 = ORIENTED_EDGE ( 'NONE', *, *, #42, .T. ) ;
#9 = CARTESIAN_POINT ( 'NONE',  ( 0.0000000000000000000, -1.118121706058359300E-020, -0.1854200000000049100 ) ) ;
#10 = AXIS2_PLACEMENT_3D ( 'NONE', #84, #177, #119 ) ;
#11 = CARTESIAN_POINT ( 'NONE',  ( 0.0000000000000000000, -0.9271000000000061400, -50.79999999999999700 ) ) ;
#12 = CARTESIAN_POINT ( 'NONE',  ( 0.0000000000000000000, 0.9271000000000000400, 5.674054933182410000E-017 ) ) ;
#13 = CARTESIAN_POINT ( 'NONE',  ( 0.0000000000000000000, -3.086504198637491000E-018, -51.18401739367610000 ) ) ;
#14 = MECHANICAL_DESIGN_GEOMETRIC_PRESENTATION_REPRESENTATION (  '', ( #186 ), #95 ) ;
#15 = DIRECTION ( 'NONE',  ( 0.0000000000000000000, -0.9238795325112841800, 0.3826834323650957200 ) ) ;
#16 = EDGE_CURVE ( 'NONE', #78, #58, #156, .T. ) ;
#17 = CARTESIAN_POINT ( 'NONE',  ( 0.0000000000000000000, 3.424946048380106300E-036, 5.679645541712701900E-017 ) ) ;
#18 =( NAMED_UNIT ( * ) SI_UNIT ( $, .STERADIAN. ) SOLID_ANGLE_UNIT ( ) );
#19 =( NAMED_UNIT ( * ) PLANE_ANGLE_UNIT ( ) SI_UNIT ( $, .RADIAN. ) );
#20 = UNCERTAINTY_MEASURE_WITH_UNIT (LENGTH_MEASURE( 1.000000000000000100E-005 ), #166, 'distance_accuracy_value', 'NONE');
#21 = ORIENTED_EDGE ( 'NONE', *, *, #125, .T. ) ;
#22 = LINE ( 'NONE', #13, #97 ) ;
#23 = PRODUCT_DEFINITION_CONTEXT ( 'detailed design', #184, 'design' ) ;
#24 = PRODUCT_RELATED_PRODUCT_CATEGORY ( 'part', '', ( #187 ) ) ;
#25 = AXIS2_PLACEMENT_3D ( 'NONE', #9, #122, #29 ) ;
#26 = ADVANCED_FACE ( 'NONE', ( #149 ), #117, .T. ) ;
#27 = FACE_OUTER_BOUND ( 'NONE', #165, .T. ) ;
#28 = EDGE_CURVE ( 'NONE', #185, #109, #181, .T. ) ;
#29 = DIRECTION ( 'NONE',  ( 0.0000000000000000000, 1.000000000000000000, 0.0000000000000000000 ) ) ;
#30 = UNCERTAINTY_MEASURE_WITH_UNIT (LENGTH_MEASURE( 1.000000000000000100E-005 ), #169, 'distance_accuracy_value', 'NONE');
#31 = DIRECTION ( 'NONE',  ( 0.0000000000000000000, 1.000000000000000000, -6.030210905287370900E-020 ) ) ;
#32 =( LENGTH_UNIT ( ) NAMED_UNIT ( * ) SI_UNIT ( .MILLI., .METRE. ) );
#33 = VERTEX_POINT ( 'NONE', #11 ) ;
#34 = CARTESIAN_POINT ( 'NONE',  ( 1.135370047489518600E-016, 0.9271000000000061400, -50.79999999999999700 ) ) ;
#35 = DIRECTION ( 'NONE',  ( -0.0000000000000000000, 6.030210905287077200E-020, 1.000000000000000000 ) ) ;
#36 = CYLINDRICAL_SURFACE ( 'NONE', #158, 0.9271000000000031400 ) ;
#37 = DIRECTION ( 'NONE',  ( 0.0000000000000000000, 1.000000000000000000, 0.0000000000000000000 ) ) ;
#38 = DIRECTION ( 'NONE',  ( -0.0000000000000000000, 6.030210905287077200E-020, 1.000000000000000000 ) ) ;
#39 = CARTESIAN_POINT ( 'NONE',  ( 1.135370047489515100E-016, 0.9271000000000031400, -0.1854200000000049100 ) ) ;
#40 = LINE ( 'NONE', #50, #130 ) ;
#41 = DIRECTION ( 'NONE',  ( 0.0000000000000000000, -1.000000000000000000, 6.030210905287077200E-020 ) ) ;
#42 = EDGE_CURVE ( 'NONE', #171, #85, #81, .T. ) ;
#43 = ORIENTED_EDGE ( 'NONE', *, *, #16, .T. ) ;
#44 = EDGE_LOOP ( 'NONE', ( #144, #8, #189 ) ) ;
#45 = CIRCLE ( 'NONE', #98, 0.9271000000000031400 ) ;
#46 = AXIS2_PLACEMENT_3D ( 'NONE', #52, #178, #164 ) ;
#47 = CARTESIAN_POINT ( 'NONE',  ( 1.021833042740563000E-016, -0.7416800000000014500, 5.684118028536934700E-017 ) ) ;
#48 = CARTESIAN_POINT ( 'NONE',  ( 0.0000000000000000000, 5.721560485423328200E-017, 948.8159826063239300 ) ) ;
#49 = AXIS2_PLACEMENT_3D ( 'NONE', #48, #87, #148 ) ;
#50 = CARTESIAN_POINT ( 'NONE',  ( 1.135370047489515100E-016, 0.9271000000000031400, -5.590608530291668000E-020 ) ) ;
#51 = MECHANICAL_DESIGN_GEOMETRIC_PRESENTATION_REPRESENTATION (  '', ( #114 ), #62 ) ;
#52 = CARTESIAN_POINT ( 'NONE',  ( 0.0000000000000000000, 5.721560485423328200E-017, 948.8159826063239300 ) ) ;
#53 = ORIENTED_EDGE ( 'NONE', *, *, #204, .T. ) ;
#54 = CARTESIAN_POINT ( 'NONE',  ( 0.0000000000000000000, 0.7416800000000014500, 5.675173054888467900E-017 ) ) ;
#55 = PRESENTATION_STYLE_ASSIGNMENT (( #201 ) ) ;
#56 = DIRECTION ( 'NONE',  ( 0.0000000000000000000, 1.000000000000000000, -6.030210905287370900E-020 ) ) ;
#57 =( GEOMETRIC_REPRESENTATION_CONTEXT ( 3 ) GLOBAL_UNCERTAINTY_ASSIGNED_CONTEXT ( ( #20 ) ) GLOBAL_UNIT_ASSIGNED_CONTEXT ( ( #166, #111, #18 ) ) REPRESENTATION_CONTEXT ( 'NONE', 'WORKASPACE' ) );
#58 = VERTEX_POINT ( 'NONE', #47 ) ;
#59 = DIRECTION ( 'NONE',  ( 0.0000000000000000000, 0.0000000000000000000, 1.000000000000000000 ) ) ;
#60 = PRESENTATION_LAYER_ASSIGNMENT (  '', '', ( #114 ) ) ;
#61 = ADVANCED_FACE ( 'NONE', ( #88 ), #127, .T. ) ;
#62 =( GEOMETRIC_REPRESENTATION_CONTEXT ( 3 ) GLOBAL_UNCERTAINTY_ASSIGNED_CONTEXT ( ( #202 ) ) GLOBAL_UNIT_ASSIGNED_CONTEXT ( ( #32, #118, #162 ) ) REPRESENTATION_CONTEXT ( 'NONE', 'WORKASPACE' ) );
#63 = AXIS2_PLACEMENT_3D ( 'NONE', #113, #59, #168 ) ;
#64 = CONICAL_SURFACE ( 'NONE', #46, 2414.213562373050500, 1.178097245096166000 ) ;
#65 = EDGE_CURVE ( 'NONE', #85, #109, #40, .T. ) ;
#66 = PLANE ( 'NONE',  #145 ) ;
#67 = ORIENTED_EDGE ( 'NONE', *, *, #146, .T. ) ;
#68 = CARTESIAN_POINT ( 'NONE',  ( 0.0000000000000000000, 3.424946048380106300E-036, 5.679645541712701900E-017 ) ) ;
#69 = PRODUCT_DEFINITION_SHAPE ( 'NONE', 'NONE',  #121 ) ;
#70 = ORIENTED_EDGE ( 'NONE', *, *, #42, .F. ) ;
#71 = DIRECTION ( 'NONE',  ( -0.0000000000000000000, 6.030210905287077200E-020, 1.000000000000000000 ) ) ;
#72 = CARTESIAN_POINT ( 'NONE',  ( 0.0000000000000000000, -3.063347139885835300E-018, -50.79999999999999700 ) ) ;
#73 = DIRECTION ( 'NONE',  ( 0.0000000000000000000, -6.030210905287077200E-020, -1.000000000000000000 ) ) ;
#74 = MANIFOLD_SOLID_BREP ( '¸ðµû±â1', #176 ) ;
#75 = AXIS2_PLACEMENT_3D ( 'NONE', #196, #71, #140 ) ;
#76 = CARTESIAN_POINT ( 'NONE',  ( 0.0000000000000000000, 3.424946048380106300E-036, 5.679645541712701900E-017 ) ) ;
#77 = CONICAL_SURFACE ( 'NONE', #7, 0.7416800000000014500, 0.7853981633974394000 ) ;
#78 = VERTEX_POINT ( 'NONE', #86 ) ;
#79 = AXIS2_PLACEMENT_3D ( 'NONE', #72, #167, #90 ) ;
#80 = SHAPE_DEFINITION_REPRESENTATION ( #69, #105 ) ;
#81 = LINE ( 'NONE', #175, #199 ) ;
#82 = ORIENTED_EDGE ( 'NONE', *, *, #182, .F. ) ;
#83 = COLOUR_RGB ( '',0.7921568627450980000, 0.8196078431372548800, 0.9333333333333333500 ) ;
#84 = CARTESIAN_POINT ( 'NONE',  ( 0.0000000000000000000, 3.424946048380106300E-036, 5.679645541712701900E-017 ) ) ;
#85 = VERTEX_POINT ( 'NONE', #34 ) ;
#86 = CARTESIAN_POINT ( 'NONE',  ( 0.0000000000000000000, 0.7416800000000014500, 5.675173054888467900E-017 ) ) ;
#87 = DIRECTION ( 'NONE',  ( -0.0000000000000000000, 6.030210905287077200E-020, 1.000000000000000000 ) ) ;
#88 = FACE_OUTER_BOUND ( 'NONE', #209, .T. ) ;
#89 = EDGE_LOOP ( 'NONE', ( #207, #5, #133, #82 ) ) ;
#90 = DIRECTION ( 'NONE',  ( 0.0000000000000000000, -1.000000000000000000, 0.0000000000000000000 ) ) ;
#91 = APPLICATION_CONTEXT ( 'automotive_design' ) ;
#92 = CARTESIAN_POINT ( 'NONE',  ( 0.0000000000000000000, -0.9271000000000031400, -0.1854200000000049100 ) ) ;
#93 = ORIENTED_EDGE ( 'NONE', *, *, #28, .T. ) ;
#94 =( NAMED_UNIT ( * ) SI_UNIT ( $, .STERADIAN. ) SOLID_ANGLE_UNIT ( ) );
#95 =( GEOMETRIC_REPRESENTATION_CONTEXT ( 3 ) GLOBAL_UNCERTAINTY_ASSIGNED_CONTEXT ( ( #30 ) ) GLOBAL_UNIT_ASSIGNED_CONTEXT ( ( #169, #19, #94 ) ) REPRESENTATION_CONTEXT ( 'NONE', 'WORKASPACE' ) );
#96 = PRESENTATION_STYLE_ASSIGNMENT (( #191 ) ) ;
#97 = VECTOR ( 'NONE', #15, 1000.000000000000100 ) ;
#98 = AXIS2_PLACEMENT_3D ( 'NONE', #214, #110, #37 ) ;
#99 = EDGE_CURVE ( 'NONE', #85, #33, #157, .T. ) ;
#100 = ADVANCED_FACE ( 'NONE', ( #120 ), #66, .F. ) ;
#101 = COLOUR_RGB ( '',0.7921568627450980000, 0.8196078431372548800, 0.9333333333333333500 ) ;
#102 = ORIENTED_EDGE ( 'NONE', *, *, #197, .T. ) ;
#103 = SURFACE_STYLE_FILL_AREA ( #179 ) ;
#104 = ORIENTED_EDGE ( 'NONE', *, *, #16, .F. ) ;
#105 = ADVANCED_BREP_SHAPE_REPRESENTATION ( '03-0332', ( #74, #63 ), #57 ) ;
#106 = EDGE_LOOP ( 'NONE', ( #43, #205 ) ) ;
#107 = SURFACE_SIDE_STYLE ('',( #123 ) ) ;
#108 = CARTESIAN_POINT ( 'NONE',  ( 9.082960379916108300E-017, -0.7416800000000014500, 5.684118028536934700E-017 ) ) ;
#109 = VERTEX_POINT ( 'NONE', #39 ) ;
#110 = DIRECTION ( 'NONE',  ( 0.0000000000000000000, -6.030210905287077200E-020, -1.000000000000000000 ) ) ;
#111 =( NAMED_UNIT ( * ) PLANE_ANGLE_UNIT ( ) SI_UNIT ( $, .RADIAN. ) );
#112 = VECTOR ( 'NONE', #152, 1000.000000000000100 ) ;
#113 = CARTESIAN_POINT ( 'NONE',  ( 0.0000000000000000000, 0.0000000000000000000, 0.0000000000000000000 ) ) ;
#114 = STYLED_ITEM ( 'NONE', ( #96 ), #74 ) ;
#115 = APPLICATION_PROTOCOL_DEFINITION ( 'draft international standard', 'automotive_design', 1998, #184 ) ;
#116 = CYLINDRICAL_SURFACE ( 'NONE', #155, 0.9271000000000031400 ) ;
#117 = CONICAL_SURFACE ( 'NONE', #10, 0.7416800000000014500, 0.7853981633974394000 ) ;
#118 =( NAMED_UNIT ( * ) PLANE_ANGLE_UNIT ( ) SI_UNIT ( $, .RADIAN. ) );
#119 = DIRECTION ( 'NONE',  ( 0.0000000000000000000, 1.000000000000000000, -6.030210905287370900E-020 ) ) ;
#120 = FACE_OUTER_BOUND ( 'NONE', #106, .T. ) ;
#121 = PRODUCT_DEFINITION ( 'UNKNOWN', '', #180, #23 ) ;
#122 = DIRECTION ( 'NONE',  ( 0.0000000000000000000, -6.030210905287077200E-020, -1.000000000000000000 ) ) ;
#123 = SURFACE_STYLE_FILL_AREA ( #192 ) ;
#124 = DIRECTION ( 'NONE',  ( 0.0000000000000000000, -6.030210905287077200E-020, -1.000000000000000000 ) ) ;
#125 = EDGE_CURVE ( 'NONE', #171, #33, #22, .T. ) ;
#126 = VECTOR ( 'NONE', #1, 1000.000000000000000 ) ;
#127 = CONICAL_SURFACE ( 'NONE', #49, 2414.213562373050500, 1.178097245096166000 ) ;
#128 = ORIENTED_EDGE ( 'NONE', *, *, #99, .T. ) ;
#129 = ADVANCED_FACE ( 'NONE', ( #27 ), #116, .T. ) ;
#130 = VECTOR ( 'NONE', #210, 1000.000000000000000 ) ;
#131 = ADVANCED_FACE ( 'NONE', ( #208 ), #36, .T. ) ;
#132 = EDGE_LOOP ( 'NONE', ( #154, #128, #67, #93 ) ) ;
#133 = ORIENTED_EDGE ( 'NONE', *, *, #204, .F. ) ;
#134 = DIRECTION ( 'NONE',  ( 1.131426112287697100E-016, 0.9238795325112841800, 0.3826834323650957200 ) ) ;
#135 = DIRECTION ( 'NONE',  ( 0.0000000000000000000, -1.000000000000000000, 6.030210905287077200E-020 ) ) ;
#136 = ORIENTED_EDGE ( 'NONE', *, *, #65, .T. ) ;
#137 = CARTESIAN_POINT ( 'NONE',  ( 0.0000000000000000000, -3.086504198637491000E-018, -51.18401739367610000 ) ) ;
#138 = CARTESIAN_POINT ( 'NONE',  ( 0.0000000000000000000, 0.0000000000000000000, 0.0000000000000000000 ) ) ;
#139 = DIRECTION ( 'NONE',  ( 0.0000000000000000000, 1.000000000000000000, -6.030210905287077200E-020 ) ) ;
#140 = DIRECTION ( 'NONE',  ( 0.0000000000000000000, -1.000000000000000000, 0.0000000000000000000 ) ) ;
#141 = PRODUCT_CONTEXT ( 'NONE', #91, 'mechanical' ) ;
#142 = ORIENTED_EDGE ( 'NONE', *, *, #28, .F. ) ;
#143 = FACE_OUTER_BOUND ( 'NONE', #44, .T. ) ;
#144 = ORIENTED_EDGE ( 'NONE', *, *, #125, .F. ) ;
#145 = AXIS2_PLACEMENT_3D ( 'NONE', #12, #73, #139 ) ;
#146 = EDGE_CURVE ( 'NONE', #33, #185, #203, .T. ) ;
#147 = DIRECTION ( 'NONE',  ( -0.0000000000000000000, 6.030210905287077200E-020, 1.000000000000000000 ) ) ;
#148 = DIRECTION ( 'NONE',  ( 0.0000000000000000000, -1.000000000000000000, 0.0000000000000000000 ) ) ;
#149 = FACE_OUTER_BOUND ( 'NONE', #89, .T. ) ;
#150 = CARTESIAN_POINT ( 'NONE',  ( 0.0000000000000000000, -0.9271000000000031400, 5.590608530291668000E-020 ) ) ;
#151 = DIRECTION ( 'NONE',  ( 8.659560562354856400E-017, -0.7071067811865413600, -0.7071067811865536800 ) ) ;
#152 = DIRECTION ( 'NONE',  ( 0.0000000000000000000, 0.7071067811865413600, -0.7071067811865536800 ) ) ;
#153 = SURFACE_SIDE_STYLE ('',( #103 ) ) ;
#154 = ORIENTED_EDGE ( 'NONE', *, *, #65, .F. ) ;
#155 = AXIS2_PLACEMENT_3D ( 'NONE', #138, #183, #41 ) ;
#156 = CIRCLE ( 'NONE', #4, 0.7416800000000014500 ) ;
#157 = CIRCLE ( 'NONE', #75, 0.9271000000000062500 ) ;
#158 = AXIS2_PLACEMENT_3D ( 'NONE', #194, #38, #135 ) ;
#159 = ORIENTED_EDGE ( 'NONE', *, *, #99, .F. ) ;
#160 = CIRCLE ( 'NONE', #211, 0.7416800000000014500 ) ;
#161 = EDGE_CURVE ( 'NONE', #58, #185, #213, .T. ) ;
#162 =( NAMED_UNIT ( * ) SI_UNIT ( $, .STERADIAN. ) SOLID_ANGLE_UNIT ( ) );
#163 = FACE_OUTER_BOUND ( 'NONE', #200, .T. ) ;
#164 = DIRECTION ( 'NONE',  ( 0.0000000000000000000, -1.000000000000000000, 0.0000000000000000000 ) ) ;
#165 = EDGE_LOOP ( 'NONE', ( #102, #136, #53, #173 ) ) ;
#166 =( LENGTH_UNIT ( ) NAMED_UNIT ( * ) SI_UNIT ( .MILLI., .METRE. ) );
#167 = DIRECTION ( 'NONE',  ( -0.0000000000000000000, 6.030210905287077200E-020, 1.000000000000000000 ) ) ;
#168 = DIRECTION ( 'NONE',  ( 1.000000000000000000, 0.0000000000000000000, 0.0000000000000000000 ) ) ;
#169 =( LENGTH_UNIT ( ) NAMED_UNIT ( * ) SI_UNIT ( .MILLI., .METRE. ) );
#170 = VECTOR ( 'NONE', #151, 1000.000000000000100 ) ;
#171 = VERTEX_POINT ( 'NONE', #137 ) ;
#172 = PRESENTATION_LAYER_ASSIGNMENT (  '', '', ( #186 ) ) ;
#173 = ORIENTED_EDGE ( 'NONE', *, *, #146, .F. ) ;
#174 = EDGE_CURVE ( 'NONE', #58, #78, #160, .T. ) ;
#175 = CARTESIAN_POINT ( 'NONE',  ( 0.0000000000000000000, -3.086504198637491000E-018, -51.18401739367610000 ) ) ;
#176 = CLOSED_SHELL ( 'NONE', ( #26, #129, #188, #100, #61, #131, #206 ) ) ;
#177 = DIRECTION ( 'NONE',  ( 0.0000000000000000000, -6.030210905287077200E-020, -1.000000000000000000 ) ) ;
#178 = DIRECTION ( 'NONE',  ( -0.0000000000000000000, 6.030210905287077200E-020, 1.000000000000000000 ) ) ;
#179 = FILL_AREA_STYLE ('',( #3 ) ) ;
#180 = PRODUCT_DEFINITION_FORMATION_WITH_SPECIFIED_SOURCE ( 'ANY', '', #187, .NOT_KNOWN. ) ;
#181 = CIRCLE ( 'NONE', #25, 0.9271000000000031400 ) ;
#182 = EDGE_CURVE ( 'NONE', #78, #109, #190, .T. ) ;
#183 = DIRECTION ( 'NONE',  ( -0.0000000000000000000, 6.030210905287077200E-020, 1.000000000000000000 ) ) ;
#184 = APPLICATION_CONTEXT ( 'automotive_design' ) ;
#185 = VERTEX_POINT ( 'NONE', #92 ) ;
#186 = STYLED_ITEM ( 'NONE', ( #55 ), #105 ) ;
#187 = PRODUCT ( '03-0332', '03-0332', '', ( #141 ) ) ;
#188 = ADVANCED_FACE ( 'NONE', ( #143 ), #64, .T. ) ;
#189 = ORIENTED_EDGE ( 'NONE', *, *, #197, .F. ) ;
#190 = LINE ( 'NONE', #54, #112 ) ;
#191 = SURFACE_STYLE_USAGE ( .BOTH. , #107 ) ;
#192 = FILL_AREA_STYLE ('',( #193 ) ) ;
#193 = FILL_AREA_STYLE_COLOUR ( '', #101 ) ;
#194 = CARTESIAN_POINT ( 'NONE',  ( 0.0000000000000000000, 0.0000000000000000000, 0.0000000000000000000 ) ) ;
#195 = CIRCLE ( 'NONE', #79, 0.9271000000000062500 ) ;
#196 = CARTESIAN_POINT ( 'NONE',  ( 0.0000000000000000000, -3.063347139885835300E-018, -50.79999999999999700 ) ) ;
#197 = EDGE_CURVE ( 'NONE', #33, #85, #195, .T. ) ;
#198 = APPLICATION_PROTOCOL_DEFINITION ( 'draft international standard', 'automotive_design', 1998, #91 ) ;
#199 = VECTOR ( 'NONE', #134, 1000.000000000000100 ) ;
#200 = EDGE_LOOP ( 'NONE', ( #212, #104, #6, #142 ) ) ;
#201 = SURFACE_STYLE_USAGE ( .BOTH. , #153 ) ;
#202 = UNCERTAINTY_MEASURE_WITH_UNIT (LENGTH_MEASURE( 1.000000000000000100E-005 ), #32, 'distance_accuracy_value', 'NONE');
#203 = LINE ( 'NONE', #150, #126 ) ;
#204 = EDGE_CURVE ( 'NONE', #109, #185, #45, .T. ) ;
#205 = ORIENTED_EDGE ( 'NONE', *, *, #174, .T. ) ;
#206 = ADVANCED_FACE ( 'NONE', ( #163 ), #77, .T. ) ;
#207 = ORIENTED_EDGE ( 'NONE', *, *, #174, .F. ) ;
#208 = FACE_OUTER_BOUND ( 'NONE', #132, .T. ) ;
#209 = EDGE_LOOP ( 'NONE', ( #70, #21, #159 ) ) ;
#210 = DIRECTION ( 'NONE',  ( -0.0000000000000000000, 6.030210905287077200E-020, 1.000000000000000000 ) ) ;
#211 = AXIS2_PLACEMENT_3D ( 'NONE', #76, #35, #2 ) ;
#212 = ORIENTED_EDGE ( 'NONE', *, *, #161, .F. ) ;
#213 = LINE ( 'NONE', #108, #170 ) ;
#214 = CARTESIAN_POINT ( 'NONE',  ( 0.0000000000000000000, -1.118121706058359300E-020, -0.1854200000000049100 ) ) ;
ENDSEC;
END-ISO-10303-21;
