ISO-10303-21;
HEADER;
FILE_DESCRIPTION (( 'STEP AP214' ),
    '1' );
FILE_NAME ('03-0333.STEP',
    '2020-07-23T06:51:56',
    ( '' ),
    ( '' ),
    'SwSTEP 2.0',
    'SolidWorks 2014',
    '' );
FILE_SCHEMA (( 'AUTOMOTIVE_DESIGN' ));
ENDSEC;

DATA;
#1 = SHAPE_DEFINITION_REPRESENTATION ( #101, #74 ) ;
#2 = EDGE_LOOP ( 'NONE', ( #189, #213, #130, #119 ) ) ;
#3 = EDGE_CURVE ( 'NONE', #139, #27, #94, .T. ) ;
#4 = PLANE ( 'NONE',  #123 ) ;
#5 =( NAMED_UNIT ( * ) SI_UNIT ( $, .STERADIAN. ) SOLID_ANGLE_UNIT ( ) );
#6 = ORIENTED_EDGE ( 'NONE', *, *, #48, .F. ) ;
#7 = CARTESIAN_POINT ( 'NONE',  ( 0.0000000000000000000, -3.480112458496636200E-020, -51.16823585694969300 ) ) ;
#8 =( NAMED_UNIT ( * ) PLANE_ANGLE_UNIT ( ) SI_UNIT ( $, .RADIAN. ) );
#9 = UNCERTAINTY_MEASURE_WITH_UNIT (LENGTH_MEASURE( 1.000000000000000100E-005 ), #179, 'distance_accuracy_value', 'NONE');
#10 = PRODUCT_DEFINITION ( 'UNKNOWN', '', #87, #183 ) ;
#11 = ORIENTED_EDGE ( 'NONE', *, *, #169, .F. ) ;
#12 = ADVANCED_FACE ( 'NONE', ( #129 ), #188, .T. ) ;
#13 = ADVANCED_FACE ( 'NONE', ( #45 ), #173, .T. ) ;
#14 = EDGE_CURVE ( 'NONE', #160, #27, #121, .T. ) ;
#15 = UNCERTAINTY_MEASURE_WITH_UNIT (LENGTH_MEASURE( 1.000000000000000100E-005 ), #43, 'distance_accuracy_value', 'NONE');
#16 = ORIENTED_EDGE ( 'NONE', *, *, #127, .F. ) ;
#17 = DIRECTION ( 'NONE',  ( 0.0000000000000000000, -6.801314136031457700E-022, -1.000000000000000000 ) ) ;
#18 = CARTESIAN_POINT ( 'NONE',  ( 0.0000000000000000000, 3.702353333907162600E-038, 5.443585254051318800E-017 ) ) ;
#19 = EDGE_LOOP ( 'NONE', ( #207, #184 ) ) ;
#20 = DIRECTION ( 'NONE',  ( -0.0000000000000000000, 6.801314136031457700E-022, 1.000000000000000000 ) ) ;
#21 = EDGE_CURVE ( 'NONE', #203, #160, #59, .T. ) ;
#22 = CARTESIAN_POINT ( 'NONE',  ( 0.0000000000000000000, -1.209273653386422800E-022, -0.1778000000000043700 ) ) ;
#23 = DIRECTION ( 'NONE',  ( 0.0000000000000000000, -0.9238795325112835200, 0.3826834323650978300 ) ) ;
#24 = CARTESIAN_POINT ( 'NONE',  ( 0.0000000000000000000, 3.702353333907162600E-038, 5.443585254051318800E-017 ) ) ;
#25 = SURFACE_STYLE_USAGE ( .BOTH. , #165 ) ;
#26 = CIRCLE ( 'NONE', #180, 0.8890000000000032300 ) ;
#27 = VERTEX_POINT ( 'NONE', #178 ) ;
#28 = APPLICATION_PROTOCOL_DEFINITION ( 'draft international standard', 'automotive_design', 1998, #31 ) ;
#29 =( NAMED_UNIT ( * ) PLANE_ANGLE_UNIT ( ) SI_UNIT ( $, .RADIAN. ) );
#30 = AXIS2_PLACEMENT_3D ( 'NONE', #140, #193, #62 ) ;
#31 = APPLICATION_CONTEXT ( 'automotive_design' ) ;
#32 = CIRCLE ( 'NONE', #152, 0.8890000000000063400 ) ;
#33 = DIRECTION ( 'NONE',  ( 0.0000000000000000000, 0.7071067811865408000, -0.7071067811865541200 ) ) ;
#34 = VECTOR ( 'NONE', #23, 999.9999999999998900 ) ;
#35 = CIRCLE ( 'NONE', #113, 0.7112000000000020500 ) ;
#36 = CARTESIAN_POINT ( 'NONE',  ( 9.798399039978003900E-017, -0.7112000000000020500, 5.443633624997454400E-017 ) ) ;
#37 = FILL_AREA_STYLE_COLOUR ( '', #60 ) ;
#38 = APPLICATION_PROTOCOL_DEFINITION ( 'draft international standard', 'automotive_design', 1998, #199 ) ;
#39 = FILL_AREA_STYLE ('',( #37 ) ) ;
#40 = VECTOR ( 'NONE', #33, 1000.000000000000100 ) ;
#41 = VERTEX_POINT ( 'NONE', #214 ) ;
#42 = ORIENTED_EDGE ( 'NONE', *, *, #21, .F. ) ;
#43 =( LENGTH_UNIT ( ) NAMED_UNIT ( * ) SI_UNIT ( .MILLI., .METRE. ) );
#44 = ADVANCED_FACE ( 'NONE', ( #206 ), #114, .T. ) ;
#45 = FACE_OUTER_BOUND ( 'NONE', #125, .T. ) ;
#46 = AXIS2_PLACEMENT_3D ( 'NONE', #61, #136, #211 ) ;
#47 = VERTEX_POINT ( 'NONE', #191 ) ;
#48 = EDGE_CURVE ( 'NONE', #49, #41, #109, .T. ) ;
#49 = VERTEX_POINT ( 'NONE', #195 ) ;
#50 = CARTESIAN_POINT ( 'NONE',  ( 0.0000000000000000000, -3.455067581103980700E-020, -50.79999999999999700 ) ) ;
#51 = PRODUCT_RELATED_PRODUCT_CATEGORY ( 'part', '', ( #58 ) ) ;
#52 =( NAMED_UNIT ( * ) SI_UNIT ( $, .STERADIAN. ) SOLID_ANGLE_UNIT ( ) );
#53 =( LENGTH_UNIT ( ) NAMED_UNIT ( * ) SI_UNIT ( .MILLI., .METRE. ) );
#54 = DIRECTION ( 'NONE',  ( 0.0000000000000000000, 1.000000000000000000, 0.0000000000000000000 ) ) ;
#55 = AXIS2_PLACEMENT_3D ( 'NONE', #124, #149, #204 ) ;
#56 = VECTOR ( 'NONE', #137, 1000.000000000000000 ) ;
#57 = EDGE_CURVE ( 'NONE', #139, #41, #32, .T. ) ;
#58 = PRODUCT ( '03-0333', '03-0333', '', ( #98 ) ) ;
#59 = CIRCLE ( 'NONE', #69, 0.7112000000000020500 ) ;
#60 = COLOUR_RGB ( '',0.7921568627450980000, 0.8196078431372548800, 0.9333333333333333500 ) ;
#61 = CARTESIAN_POINT ( 'NONE',  ( 0.0000000000000000000, 6.453302890181794400E-019, 948.8317641430502400 ) ) ;
#62 = DIRECTION ( 'NONE',  ( 0.0000000000000000000, -1.000000000000000000, 6.801314136031457700E-022 ) ) ;
#63 = STYLED_ITEM ( 'NONE', ( #104 ), #74 ) ;
#64 = ORIENTED_EDGE ( 'NONE', *, *, #3, .T. ) ;
#65 = DIRECTION ( 'NONE',  ( -0.0000000000000000000, 6.801314136031457700E-022, 1.000000000000000000 ) ) ;
#66 = DIRECTION ( 'NONE',  ( 0.0000000000000000000, 1.000000000000000000, 0.0000000000000000000 ) ) ;
#67 = DIRECTION ( 'NONE',  ( -0.0000000000000000000, 6.801314136031457700E-022, 1.000000000000000000 ) ) ;
#68 = CIRCLE ( 'NONE', #194, 0.8890000000000063400 ) ;
#69 = AXIS2_PLACEMENT_3D ( 'NONE', #192, #65, #80 ) ;
#70 = CARTESIAN_POINT ( 'NONE',  ( 0.0000000000000000000, 0.8890000000000000100, 5.443524790368649200E-017 ) ) ;
#71 = ORIENTED_EDGE ( 'NONE', *, *, #93, .F. ) ;
#72 = EDGE_CURVE ( 'NONE', #203, #47, #73, .T. ) ;
#73 = LINE ( 'NONE', #159, #40 ) ;
#74 = ADVANCED_BREP_SHAPE_REPRESENTATION ( '03-0333', ( #210, #55 ), #105 ) ;
#75 = VECTOR ( 'NONE', #174, 999.9999999999998900 ) ;
#76 = ORIENTED_EDGE ( 'NONE', *, *, #93, .T. ) ;
#77 = ORIENTED_EDGE ( 'NONE', *, *, #57, .F. ) ;
#78 = SURFACE_STYLE_FILL_AREA ( #39 ) ;
#79 = DIRECTION ( 'NONE',  ( 0.0000000000000000000, -1.000000000000000000, 0.0000000000000000000 ) ) ;
#80 = DIRECTION ( 'NONE',  ( 0.0000000000000000000, 1.000000000000000000, -6.801314136004788100E-022 ) ) ;
#81 = ORIENTED_EDGE ( 'NONE', *, *, #14, .F. ) ;
#82 = DIRECTION ( 'NONE',  ( 0.0000000000000000000, -6.801314136031457700E-022, -1.000000000000000000 ) ) ;
#83 = CARTESIAN_POINT ( 'NONE',  ( 0.0000000000000000000, 0.0000000000000000000, 0.0000000000000000000 ) ) ;
#84 = CIRCLE ( 'NONE', #133, 0.8890000000000032300 ) ;
#85 = DIRECTION ( 'NONE',  ( -0.0000000000000000000, 6.801314136031457700E-022, 1.000000000000000000 ) ) ;
#86 = SURFACE_STYLE_USAGE ( .BOTH. , #182 ) ;
#87 = PRODUCT_DEFINITION_FORMATION_WITH_SPECIFIED_SOURCE ( 'ANY', '', #58, .NOT_KNOWN. ) ;
#88 = LINE ( 'NONE', #7, #34 ) ;
#89 = CLOSED_SHELL ( 'NONE', ( #13, #190, #12, #153, #205, #44, #131 ) ) ;
#90 = EDGE_CURVE ( 'NONE', #41, #47, #155, .T. ) ;
#91 = ORIENTED_EDGE ( 'NONE', *, *, #14, .T. ) ;
#92 = DIRECTION ( 'NONE',  ( 0.0000000000000000000, 1.000000000000000000, -6.801314136004788100E-022 ) ) ;
#93 = EDGE_CURVE ( 'NONE', #27, #47, #26, .T. ) ;
#94 = LINE ( 'NONE', #176, #56 ) ;
#95 = AXIS2_PLACEMENT_3D ( 'NONE', #83, #128, #161 ) ;
#96 = CARTESIAN_POINT ( 'NONE',  ( 0.0000000000000000000, 0.7112000000000020500, 5.443536883105183900E-017 ) ) ;
#97 = DIRECTION ( 'NONE',  ( 0.0000000000000000000, -6.801314136031457700E-022, -1.000000000000000000 ) ) ;
#98 = PRODUCT_CONTEXT ( 'NONE', #199, 'mechanical' ) ;
#99 = CONICAL_SURFACE ( 'NONE', #158, 0.7112000000000020500, 0.7853981633974388400 ) ;
#100 = EDGE_CURVE ( 'NONE', #160, #203, #35, .T. ) ;
#101 = PRODUCT_DEFINITION_SHAPE ( 'NONE', 'NONE',  #10 ) ;
#102 = PRESENTATION_STYLE_ASSIGNMENT (( #25 ) ) ;
#103 = ORIENTED_EDGE ( 'NONE', *, *, #169, .T. ) ;
#104 = PRESENTATION_STYLE_ASSIGNMENT (( #86 ) ) ;
#105 =( GEOMETRIC_REPRESENTATION_CONTEXT ( 3 ) GLOBAL_UNCERTAINTY_ASSIGNED_CONTEXT ( ( #151 ) ) GLOBAL_UNIT_ASSIGNED_CONTEXT ( ( #53, #8, #5 ) ) REPRESENTATION_CONTEXT ( 'NONE', 'WORKASPACE' ) );
#106 = VECTOR ( 'NONE', #175, 1000.000000000000100 ) ;
#107 = DIRECTION ( 'NONE',  ( 0.0000000000000000000, 1.000000000000000000, -6.801314136031457700E-022 ) ) ;
#108 = DIRECTION ( 'NONE',  ( 0.0000000000000000000, -1.000000000000000000, 0.0000000000000000000 ) ) ;
#109 = LINE ( 'NONE', #120, #75 ) ;
#110 = EDGE_LOOP ( 'NONE', ( #11, #164, #77 ) ) ;
#111 = DIRECTION ( 'NONE',  ( 0.0000000000000000000, 1.000000000000000000, -6.801314136004788100E-022 ) ) ;
#112 = ORIENTED_EDGE ( 'NONE', *, *, #72, .T. ) ;
#113 = AXIS2_PLACEMENT_3D ( 'NONE', #196, #85, #141 ) ;
#114 = CYLINDRICAL_SURFACE ( 'NONE', #30, 0.8890000000000032300 ) ;
#115 = EDGE_CURVE ( 'NONE', #41, #139, #68, .T. ) ;
#116 = ORIENTED_EDGE ( 'NONE', *, *, #72, .F. ) ;
#117 = VECTOR ( 'NONE', #20, 1000.000000000000000 ) ;
#118 = CARTESIAN_POINT ( 'NONE',  ( 8.709688035536001600E-017, -0.7112000000000020500, 5.443633624997454400E-017 ) ) ;
#119 = ORIENTED_EDGE ( 'NONE', *, *, #3, .F. ) ;
#120 = CARTESIAN_POINT ( 'NONE',  ( 0.0000000000000000000, -3.480112458496636200E-020, -51.16823585694969300 ) ) ;
#121 = LINE ( 'NONE', #118, #106 ) ;
#122 = DIRECTION ( 'NONE',  ( 0.0000000000000000000, -6.801314136031457700E-022, -1.000000000000000000 ) ) ;
#123 = AXIS2_PLACEMENT_3D ( 'NONE', #70, #145, #107 ) ;
#124 = CARTESIAN_POINT ( 'NONE',  ( 0.0000000000000000000, 0.0000000000000000000, 0.0000000000000000000 ) ) ;
#125 = EDGE_LOOP ( 'NONE', ( #156, #91, #16, #116 ) ) ;
#126 = FILL_AREA_STYLE ('',( #144 ) ) ;
#127 = EDGE_CURVE ( 'NONE', #47, #27, #84, .T. ) ;
#128 = DIRECTION ( 'NONE',  ( -0.0000000000000000000, 6.801314136031457700E-022, 1.000000000000000000 ) ) ;
#129 = FACE_OUTER_BOUND ( 'NONE', #110, .T. ) ;
#130 = ORIENTED_EDGE ( 'NONE', *, *, #127, .T. ) ;
#131 = ADVANCED_FACE ( 'NONE', ( #212 ), #99, .T. ) ;
#132 = CONICAL_SURFACE ( 'NONE', #171, 2414.213562373035500, 1.178097245096163800 ) ;
#133 = AXIS2_PLACEMENT_3D ( 'NONE', #22, #122, #66 ) ;
#134 = EDGE_LOOP ( 'NONE', ( #170, #209, #64, #76 ) ) ;
#135 = STYLED_ITEM ( 'NONE', ( #102 ), #210 ) ;
#136 = DIRECTION ( 'NONE',  ( -0.0000000000000000000, 6.801314136031457700E-022, 1.000000000000000000 ) ) ;
#137 = DIRECTION ( 'NONE',  ( -0.0000000000000000000, 6.801314136031457700E-022, 1.000000000000000000 ) ) ;
#138 = CYLINDRICAL_SURFACE ( 'NONE', #95, 0.8890000000000032300 ) ;
#139 = VERTEX_POINT ( 'NONE', #201 ) ;
#140 = CARTESIAN_POINT ( 'NONE',  ( 0.0000000000000000000, 0.0000000000000000000, 0.0000000000000000000 ) ) ;
#141 = DIRECTION ( 'NONE',  ( 0.0000000000000000000, 1.000000000000000000, -6.801314136004788100E-022 ) ) ;
#142 = FACE_OUTER_BOUND ( 'NONE', #19, .T. ) ;
#143 =( NAMED_UNIT ( * ) PLANE_ANGLE_UNIT ( ) SI_UNIT ( $, .RADIAN. ) );
#144 = FILL_AREA_STYLE_COLOUR ( '', #197 ) ;
#145 = DIRECTION ( 'NONE',  ( 0.0000000000000000000, -6.801314136031457700E-022, -1.000000000000000000 ) ) ;
#146 = CARTESIAN_POINT ( 'NONE',  ( 0.0000000000000000000, -1.209273653386422800E-022, -0.1778000000000043700 ) ) ;
#147 = FACE_OUTER_BOUND ( 'NONE', #172, .T. ) ;
#148 = SURFACE_STYLE_FILL_AREA ( #126 ) ;
#149 = DIRECTION ( 'NONE',  ( 0.0000000000000000000, 0.0000000000000000000, 1.000000000000000000 ) ) ;
#150 = MECHANICAL_DESIGN_GEOMETRIC_PRESENTATION_REPRESENTATION (  '', ( #135 ), #162 ) ;
#151 = UNCERTAINTY_MEASURE_WITH_UNIT (LENGTH_MEASURE( 1.000000000000000100E-005 ), #53, 'distance_accuracy_value', 'NONE');
#152 = AXIS2_PLACEMENT_3D ( 'NONE', #50, #154, #79 ) ;
#153 = ADVANCED_FACE ( 'NONE', ( #142 ), #4, .F. ) ;
#154 = DIRECTION ( 'NONE',  ( -0.0000000000000000000, 6.801314136031457700E-022, 1.000000000000000000 ) ) ;
#155 = LINE ( 'NONE', #157, #117 ) ;
#156 = ORIENTED_EDGE ( 'NONE', *, *, #100, .F. ) ;
#157 = CARTESIAN_POINT ( 'NONE',  ( 1.088711004442000800E-016, 0.8890000000000032300, -6.046368266931987700E-022 ) ) ;
#158 = AXIS2_PLACEMENT_3D ( 'NONE', #24, #82, #111 ) ;
#159 = CARTESIAN_POINT ( 'NONE',  ( 0.0000000000000000000, 0.7112000000000020500, 5.443536883105183900E-017 ) ) ;
#160 = VERTEX_POINT ( 'NONE', #36 ) ;
#161 = DIRECTION ( 'NONE',  ( 0.0000000000000000000, -1.000000000000000000, 6.801314136031457700E-022 ) ) ;
#162 =( GEOMETRIC_REPRESENTATION_CONTEXT ( 3 ) GLOBAL_UNCERTAINTY_ASSIGNED_CONTEXT ( ( #9 ) ) GLOBAL_UNIT_ASSIGNED_CONTEXT ( ( #179, #143, #52 ) ) REPRESENTATION_CONTEXT ( 'NONE', 'WORKASPACE' ) );
#163 = DIRECTION ( 'NONE',  ( -0.0000000000000000000, 6.801314136031457700E-022, 1.000000000000000000 ) ) ;
#164 = ORIENTED_EDGE ( 'NONE', *, *, #48, .T. ) ;
#165 = SURFACE_SIDE_STYLE ('',( #78 ) ) ;
#166 = PRESENTATION_LAYER_ASSIGNMENT (  '', '', ( #135 ) ) ;
#167 =( NAMED_UNIT ( * ) SI_UNIT ( $, .STERADIAN. ) SOLID_ANGLE_UNIT ( ) );
#168 = EDGE_LOOP ( 'NONE', ( #81, #42, #112, #71 ) ) ;
#169 = EDGE_CURVE ( 'NONE', #49, #139, #88, .T. ) ;
#170 = ORIENTED_EDGE ( 'NONE', *, *, #90, .F. ) ;
#171 = AXIS2_PLACEMENT_3D ( 'NONE', #181, #67, #108 ) ;
#172 = EDGE_LOOP ( 'NONE', ( #6, #103, #177 ) ) ;
#173 = CONICAL_SURFACE ( 'NONE', #185, 0.7112000000000020500, 0.7853981633974388400 ) ;
#174 = DIRECTION ( 'NONE',  ( 1.131426112287696300E-016, 0.9238795325112835200, 0.3826834323650978300 ) ) ;
#175 = DIRECTION ( 'NONE',  ( 8.659560562354850300E-017, -0.7071067811865408000, -0.7071067811865541200 ) ) ;
#176 = CARTESIAN_POINT ( 'NONE',  ( 0.0000000000000000000, -0.8890000000000032300, 6.046368266931987700E-022 ) ) ;
#177 = ORIENTED_EDGE ( 'NONE', *, *, #115, .F. ) ;
#178 = CARTESIAN_POINT ( 'NONE',  ( 0.0000000000000000000, -0.8890000000000032300, -0.1778000000000043700 ) ) ;
#179 =( LENGTH_UNIT ( ) NAMED_UNIT ( * ) SI_UNIT ( .MILLI., .METRE. ) );
#180 = AXIS2_PLACEMENT_3D ( 'NONE', #146, #97, #54 ) ;
#181 = CARTESIAN_POINT ( 'NONE',  ( 0.0000000000000000000, 6.453302890181794400E-019, 948.8317641430502400 ) ) ;
#182 = SURFACE_SIDE_STYLE ('',( #148 ) ) ;
#183 = PRODUCT_DEFINITION_CONTEXT ( 'detailed design', #31, 'design' ) ;
#184 = ORIENTED_EDGE ( 'NONE', *, *, #100, .T. ) ;
#185 = AXIS2_PLACEMENT_3D ( 'NONE', #18, #17, #92 ) ;
#186 = FACE_OUTER_BOUND ( 'NONE', #2, .T. ) ;
#187 = MECHANICAL_DESIGN_GEOMETRIC_PRESENTATION_REPRESENTATION (  '', ( #63 ), #202 ) ;
#188 = CONICAL_SURFACE ( 'NONE', #46, 2414.213562373035500, 1.178097245096163800 ) ;
#189 = ORIENTED_EDGE ( 'NONE', *, *, #57, .T. ) ;
#190 = ADVANCED_FACE ( 'NONE', ( #186 ), #138, .T. ) ;
#191 = CARTESIAN_POINT ( 'NONE',  ( 1.088711004442000800E-016, 0.8890000000000032300, -0.1778000000000043700 ) ) ;
#192 = CARTESIAN_POINT ( 'NONE',  ( 0.0000000000000000000, 3.702353333907163700E-038, 5.443585254051318800E-017 ) ) ;
#193 = DIRECTION ( 'NONE',  ( -0.0000000000000000000, 6.801314136031457700E-022, 1.000000000000000000 ) ) ;
#194 = AXIS2_PLACEMENT_3D ( 'NONE', #200, #163, #198 ) ;
#195 = CARTESIAN_POINT ( 'NONE',  ( 0.0000000000000000000, -3.480112458496636200E-020, -51.16823585694969300 ) ) ;
#196 = CARTESIAN_POINT ( 'NONE',  ( 0.0000000000000000000, 3.702353333907163700E-038, 5.443585254051318800E-017 ) ) ;
#197 = COLOUR_RGB ( '',0.7921568627450980000, 0.8196078431372548800, 0.9333333333333333500 ) ;
#198 = DIRECTION ( 'NONE',  ( 0.0000000000000000000, -1.000000000000000000, 0.0000000000000000000 ) ) ;
#199 = APPLICATION_CONTEXT ( 'automotive_design' ) ;
#200 = CARTESIAN_POINT ( 'NONE',  ( 0.0000000000000000000, -3.455067581103980700E-020, -50.79999999999999700 ) ) ;
#201 = CARTESIAN_POINT ( 'NONE',  ( 0.0000000000000000000, -0.8890000000000064500, -50.79999999999999700 ) ) ;
#202 =( GEOMETRIC_REPRESENTATION_CONTEXT ( 3 ) GLOBAL_UNCERTAINTY_ASSIGNED_CONTEXT ( ( #15 ) ) GLOBAL_UNIT_ASSIGNED_CONTEXT ( ( #43, #29, #167 ) ) REPRESENTATION_CONTEXT ( 'NONE', 'WORKASPACE' ) );
#203 = VERTEX_POINT ( 'NONE', #96 ) ;
#204 = DIRECTION ( 'NONE',  ( 1.000000000000000000, 0.0000000000000000000, 0.0000000000000000000 ) ) ;
#205 = ADVANCED_FACE ( 'NONE', ( #147 ), #132, .T. ) ;
#206 = FACE_OUTER_BOUND ( 'NONE', #134, .T. ) ;
#207 = ORIENTED_EDGE ( 'NONE', *, *, #21, .T. ) ;
#208 = PRESENTATION_LAYER_ASSIGNMENT (  '', '', ( #63 ) ) ;
#209 = ORIENTED_EDGE ( 'NONE', *, *, #115, .T. ) ;
#210 = MANIFOLD_SOLID_BREP ( '¸ðµû±â1', #89 ) ;
#211 = DIRECTION ( 'NONE',  ( 0.0000000000000000000, -1.000000000000000000, 0.0000000000000000000 ) ) ;
#212 = FACE_OUTER_BOUND ( 'NONE', #168, .T. ) ;
#213 = ORIENTED_EDGE ( 'NONE', *, *, #90, .T. ) ;
#214 = CARTESIAN_POINT ( 'NONE',  ( 1.088711004442004900E-016, 0.8890000000000064500, -50.79999999999999700 ) ) ;
ENDSEC;
END-ISO-10303-21;
