ISO-10303-21;
HEADER;
FILE_DESCRIPTION (( 'STEP AP214' ),
    '1' );
FILE_NAME ('03-0335.STEP',
    '2020-07-23T06:53:18',
    ( '' ),
    ( '' ),
    'SwSTEP 2.0',
    'SolidWorks 2014',
    '' );
FILE_SCHEMA (( 'AUTOMOTIVE_DESIGN' ));
ENDSEC;

DATA;
#1 =( NAMED_UNIT ( * ) SI_UNIT ( $, .STERADIAN. ) SOLID_ANGLE_UNIT ( ) );
#2 = SURFACE_STYLE_USAGE ( .BOTH. , #36 ) ;
#3 = ORIENTED_EDGE ( 'NONE', *, *, #24, .T. ) ;
#4 = AXIS2_PLACEMENT_3D ( 'NONE', #147, #33, #161 ) ;
#5 = STYLED_ITEM ( 'NONE', ( #26 ), #187 ) ;
#6 = FACE_OUTER_BOUND ( 'NONE', #205, .T. ) ;
#7 = ORIENTED_EDGE ( 'NONE', *, *, #25, .F. ) ;
#8 = EDGE_CURVE ( 'NONE', #76, #198, #184, .T. ) ;
#9 = CARTESIAN_POINT ( 'NONE',  ( 0.0000000000000000000, 3.279863313451142900E-018, -47.95904252737578600 ) ) ;
#10 = DIRECTION ( 'NONE',  ( -0.0000000000000000000, -6.838884057326508000E-020, 1.000000000000000000 ) ) ;
#11 = CIRCLE ( 'NONE', #51, 0.8064500000000061100 ) ;
#12 = ADVANCED_FACE ( 'NONE', ( #164 ), #124, .T. ) ;
#13 = EDGE_CURVE ( 'NONE', #198, #32, #95, .T. ) ;
#14 = CARTESIAN_POINT ( 'NONE',  ( 0.0000000000000000000, -3.375211167721349300E-036, 4.935324446837901100E-017 ) ) ;
#15 = ADVANCED_FACE ( 'NONE', ( #83 ), #98, .T. ) ;
#16 = FACE_OUTER_BOUND ( 'NONE', #181, .T. ) ;
#17 = DIRECTION ( 'NONE',  ( 0.0000000000000000000, 1.000000000000000000, 0.0000000000000000000 ) ) ;
#18 = CARTESIAN_POINT ( 'NONE',  ( 0.0000000000000000000, -6.510897725981394100E-017, 952.0409574726242000 ) ) ;
#19 = FILL_AREA_STYLE ('',( #194 ) ) ;
#20 = ORIENTED_EDGE ( 'NONE', *, *, #31, .F. ) ;
#21 = VERTEX_POINT ( 'NONE', #179 ) ;
#22 = CARTESIAN_POINT ( 'NONE',  ( 9.876164111723868000E-017, 0.8064500000000030000, -0.1612900000000067600 ) ) ;
#23 = APPLICATION_PROTOCOL_DEFINITION ( 'draft international standard', 'automotive_design', 1998, #121 ) ;
#24 = EDGE_CURVE ( 'NONE', #99, #21, #151, .T. ) ;
#25 = EDGE_CURVE ( 'NONE', #99, #131, #143, .T. ) ;
#26 = PRESENTATION_STYLE_ASSIGNMENT (( #2 ) ) ;
#27 = DIRECTION ( 'NONE',  ( -0.0000000000000000000, -6.838884057326508000E-020, 1.000000000000000000 ) ) ;
#28 = COLOUR_RGB ( '',0.7921568627450980000, 0.8196078431372548800, 0.9333333333333333500 ) ;
#29 = AXIS2_PLACEMENT_3D ( 'NONE', #212, #149, #178 ) ;
#30 = SHAPE_DEFINITION_REPRESENTATION ( #35, #79 ) ;
#31 = EDGE_CURVE ( 'NONE', #54, #76, #113, .T. ) ;
#32 = VERTEX_POINT ( 'NONE', #174 ) ;
#33 = DIRECTION ( 'NONE',  ( -0.0000000000000000000, -6.838884057326508000E-020, 1.000000000000000000 ) ) ;
#34 = FACE_OUTER_BOUND ( 'NONE', #86, .T. ) ;
#35 = PRODUCT_DEFINITION_SHAPE ( 'NONE', 'NONE',  #183 ) ;
#36 = SURFACE_SIDE_STYLE ('',( #57 ) ) ;
#37 = LINE ( 'NONE', #160, #89 ) ;
#38 = COLOUR_RGB ( '',0.7921568627450980000, 0.8196078431372548800, 0.9333333333333333500 ) ;
#39 = DIRECTION ( 'NONE',  ( 0.0000000000000000000, -0.9238795325112853000, 0.3826834323650932800 ) ) ;
#40 = PRODUCT_RELATED_PRODUCT_CATEGORY ( 'part', '', ( #107 ) ) ;
#41 = VECTOR ( 'NONE', #150, 1000.000000000000000 ) ;
#42 = DIRECTION ( 'NONE',  ( 0.0000000000000000000, 6.838884057326508000E-020, -1.000000000000000000 ) ) ;
#43 = CARTESIAN_POINT ( 'NONE',  ( 0.0000000000000000000, -3.375211167721349300E-036, 4.935324446837901100E-017 ) ) ;
#44 = DIRECTION ( 'NONE',  ( 0.0000000000000000000, 1.000000000000000000, 6.838884057326527300E-020 ) ) ;
#45 = CLOSED_SHELL ( 'NONE', ( #53, #12, #144, #133, #72, #15, #190 ) ) ;
#46 = CARTESIAN_POINT ( 'NONE',  ( 9.876164111723868000E-017, 0.8064500000000030000, 5.515218048030984000E-020 ) ) ;
#47 = DIRECTION ( 'NONE',  ( 0.0000000000000000000, 1.000000000000000000, 6.838884057326527300E-020 ) ) ;
#48 = AXIS2_PLACEMENT_3D ( 'NONE', #214, #104, #167 ) ;
#49 = VECTOR ( 'NONE', #208, 1000.000000000000100 ) ;
#50 = UNCERTAINTY_MEASURE_WITH_UNIT (LENGTH_MEASURE( 1.000000000000000100E-005 ), #103, 'distance_accuracy_value', 'NONE');
#51 = AXIS2_PLACEMENT_3D ( 'NONE', #77, #59, #97 ) ;
#52 = CIRCLE ( 'NONE', #68, 0.8064500000000030000 ) ;
#53 = ADVANCED_FACE ( 'NONE', ( #120 ), #204, .T. ) ;
#54 = VERTEX_POINT ( 'NONE', #96 ) ;
#55 = DIRECTION ( 'NONE',  ( 0.0000000000000000000, 1.000000000000000000, 6.838884057326527300E-020 ) ) ;
#56 = CARTESIAN_POINT ( 'NONE',  ( 0.0000000000000000000, -3.375211167721349300E-036, 4.935324446837901100E-017 ) ) ;
#57 = SURFACE_STYLE_FILL_AREA ( #19 ) ;
#58 = CARTESIAN_POINT ( 'NONE',  ( 0.0000000000000000000, 3.279863313451142900E-018, -47.95904252737578600 ) ) ;
#59 = DIRECTION ( 'NONE',  ( -0.0000000000000000000, -6.838884057326508000E-020, 1.000000000000000000 ) ) ;
#60 = DIRECTION ( 'NONE',  ( 0.0000000000000000000, 6.838884057326508000E-020, -1.000000000000000000 ) ) ;
#61 = ORIENTED_EDGE ( 'NONE', *, *, #105, .T. ) ;
#62 = CIRCLE ( 'NONE', #193, 0.8064500000000061100 ) ;
#63 =( LENGTH_UNIT ( ) NAMED_UNIT ( * ) SI_UNIT ( .MILLI., .METRE. ) );
#64 = AXIS2_PLACEMENT_3D ( 'NONE', #56, #114, #44 ) ;
#65 = ORIENTED_EDGE ( 'NONE', *, *, #140, .T. ) ;
#66 = CIRCLE ( 'NONE', #64, 0.6451599999999988500 ) ;
#67 = CARTESIAN_POINT ( 'NONE',  ( 0.0000000000000000000, 0.0000000000000000000, 0.0000000000000000000 ) ) ;
#68 = AXIS2_PLACEMENT_3D ( 'NONE', #100, #42, #17 ) ;
#69 = ORIENTED_EDGE ( 'NONE', *, *, #13, .T. ) ;
#70 = ORIENTED_EDGE ( 'NONE', *, *, #25, .T. ) ;
#71 = AXIS2_PLACEMENT_3D ( 'NONE', #152, #123, #47 ) ;
#72 = ADVANCED_FACE ( 'NONE', ( #6 ), #110, .T. ) ;
#73 = ORIENTED_EDGE ( 'NONE', *, *, #24, .F. ) ;
#74 = DIRECTION ( 'NONE',  ( -0.0000000000000000000, -6.838884057326508000E-020, 1.000000000000000000 ) ) ;
#75 = DIRECTION ( 'NONE',  ( 0.0000000000000000000, 1.000000000000000000, 6.838884057326527300E-020 ) ) ;
#76 = VERTEX_POINT ( 'NONE', #163 ) ;
#77 = CARTESIAN_POINT ( 'NONE',  ( 0.0000000000000000000, 3.257018532301749700E-018, -47.62500000000000000 ) ) ;
#78 =( GEOMETRIC_REPRESENTATION_CONTEXT ( 3 ) GLOBAL_UNCERTAINTY_ASSIGNED_CONTEXT ( ( #211 ) ) GLOBAL_UNIT_ASSIGNED_CONTEXT ( ( #81, #180, #125 ) ) REPRESENTATION_CONTEXT ( 'NONE', 'WORKASPACE' ) );
#79 = ADVANCED_BREP_SHAPE_REPRESENTATION ( '03-0335', ( #187, #48 ), #78 ) ;
#80 = APPLICATION_CONTEXT ( 'automotive_design' ) ;
#81 =( LENGTH_UNIT ( ) NAMED_UNIT ( * ) SI_UNIT ( .MILLI., .METRE. ) );
#82 = SURFACE_STYLE_USAGE ( .BOTH. , #154 ) ;
#83 = FACE_OUTER_BOUND ( 'NONE', #202, .T. ) ;
#84 = FILL_AREA_STYLE_COLOUR ( '', #38 ) ;
#85 =( NAMED_UNIT ( * ) PLANE_ANGLE_UNIT ( ) SI_UNIT ( $, .RADIAN. ) );
#86 = EDGE_LOOP ( 'NONE', ( #156, #155 ) ) ;
#87 = PRODUCT_DEFINITION_FORMATION_WITH_SPECIFIED_SOURCE ( 'ANY', '', #107, .NOT_KNOWN. ) ;
#88 = PRESENTATION_STYLE_ASSIGNMENT (( #82 ) ) ;
#89 = VECTOR ( 'NONE', #145, 1000.000000000000000 ) ;
#90 = EDGE_CURVE ( 'NONE', #21, #131, #11, .T. ) ;
#91 = UNCERTAINTY_MEASURE_WITH_UNIT (LENGTH_MEASURE( 1.000000000000000100E-005 ), #63, 'distance_accuracy_value', 'NONE');
#92 = CARTESIAN_POINT ( 'NONE',  ( 0.0000000000000000000, 0.0000000000000000000, 0.0000000000000000000 ) ) ;
#93 = DIRECTION ( 'NONE',  ( 0.0000000000000000000, 6.838884057326508000E-020, -1.000000000000000000 ) ) ;
#94 = EDGE_CURVE ( 'NONE', #32, #198, #52, .T. ) ;
#95 = CIRCLE ( 'NONE', #115, 0.8064500000000030000 ) ;
#96 = CARTESIAN_POINT ( 'NONE',  ( 8.888547700551457300E-017, -0.6451599999999988500, 4.930912272399475900E-017 ) ) ;
#97 = DIRECTION ( 'NONE',  ( 0.0000000000000000000, -1.000000000000000000, 0.0000000000000000000 ) ) ;
#98 = CYLINDRICAL_SURFACE ( 'NONE', #146, 0.8064500000000030000 ) ;
#99 = VERTEX_POINT ( 'NONE', #209 ) ;
#100 = CARTESIAN_POINT ( 'NONE',  ( 0.0000000000000000000, 1.103043609606238800E-020, -0.1612900000000067600 ) ) ;
#101 = DIRECTION ( 'NONE',  ( -0.0000000000000000000, -6.838884057326508000E-020, 1.000000000000000000 ) ) ;
#102 = ORIENTED_EDGE ( 'NONE', *, *, #153, .F. ) ;
#103 =( LENGTH_UNIT ( ) NAMED_UNIT ( * ) SI_UNIT ( .MILLI., .METRE. ) );
#104 = DIRECTION ( 'NONE',  ( 0.0000000000000000000, 0.0000000000000000000, 1.000000000000000000 ) ) ;
#105 = EDGE_CURVE ( 'NONE', #54, #32, #195, .T. ) ;
#106 = ORIENTED_EDGE ( 'NONE', *, *, #94, .T. ) ;
#107 = PRODUCT ( '03-0335', '03-0335', '', ( #166 ) ) ;
#108 = ORIENTED_EDGE ( 'NONE', *, *, #8, .F. ) ;
#109 = SURFACE_STYLE_FILL_AREA ( #182 ) ;
#110 = CONICAL_SURFACE ( 'NONE', #185, 2414.213562373069200, 1.178097245096168600 ) ;
#111 = ORIENTED_EDGE ( 'NONE', *, *, #105, .F. ) ;
#112 = DIRECTION ( 'NONE',  ( 0.0000000000000000000, 1.000000000000000000, 0.0000000000000000000 ) ) ;
#113 = CIRCLE ( 'NONE', #129, 0.6451599999999988500 ) ;
#114 = DIRECTION ( 'NONE',  ( -0.0000000000000000000, -6.838884057326508000E-020, 1.000000000000000000 ) ) ;
#115 = AXIS2_PLACEMENT_3D ( 'NONE', #191, #93, #112 ) ;
#116 = ORIENTED_EDGE ( 'NONE', *, *, #122, .F. ) ;
#117 = PLANE ( 'NONE',  #29 ) ;
#118 = DIRECTION ( 'NONE',  ( -0.0000000000000000000, -6.838884057326508000E-020, 1.000000000000000000 ) ) ;
#119 = EDGE_LOOP ( 'NONE', ( #20, #61, #142, #108 ) ) ;
#120 = FACE_OUTER_BOUND ( 'NONE', #119, .T. ) ;
#121 = APPLICATION_CONTEXT ( 'automotive_design' ) ;
#122 = EDGE_CURVE ( 'NONE', #76, #54, #66, .T. ) ;
#123 = DIRECTION ( 'NONE',  ( 0.0000000000000000000, 6.838884057326508000E-020, -1.000000000000000000 ) ) ;
#124 = CYLINDRICAL_SURFACE ( 'NONE', #138, 0.8064500000000030000 ) ;
#125 =( NAMED_UNIT ( * ) SI_UNIT ( $, .STERADIAN. ) SOLID_ANGLE_UNIT ( ) );
#126 = ORIENTED_EDGE ( 'NONE', *, *, #90, .F. ) ;
#127 = ORIENTED_EDGE ( 'NONE', *, *, #153, .T. ) ;
#128 = VECTOR ( 'NONE', #39, 1000.000000000000000 ) ;
#129 = AXIS2_PLACEMENT_3D ( 'NONE', #43, #101, #75 ) ;
#130 = DIRECTION ( 'NONE',  ( 0.0000000000000000000, -1.000000000000000000, -6.838884057326509200E-020 ) ) ;
#131 = VERTEX_POINT ( 'NONE', #134 ) ;
#132 = CARTESIAN_POINT ( 'NONE',  ( 0.0000000000000000000, 0.6451599999999988500, 4.939736621276325600E-017 ) ) ;
#133 = ADVANCED_FACE ( 'NONE', ( #34 ), #117, .F. ) ;
#134 = CARTESIAN_POINT ( 'NONE',  ( 9.876164111723901300E-017, 0.8064500000000058800, -47.62500000000000000 ) ) ;
#135 = CARTESIAN_POINT ( 'NONE',  ( 7.900931289379049100E-017, -0.6451599999999988500, 4.930912272399475900E-017 ) ) ;
#136 = DIRECTION ( 'NONE',  ( 0.0000000000000000000, -1.000000000000000000, 0.0000000000000000000 ) ) ;
#137 =( NAMED_UNIT ( * ) PLANE_ANGLE_UNIT ( ) SI_UNIT ( $, .RADIAN. ) );
#138 = AXIS2_PLACEMENT_3D ( 'NONE', #67, #27, #130 ) ;
#139 = ORIENTED_EDGE ( 'NONE', *, *, #159, .F. ) ;
#140 = EDGE_CURVE ( 'NONE', #131, #21, #62, .T. ) ;
#141 = VECTOR ( 'NONE', #189, 1000.000000000000100 ) ;
#142 = ORIENTED_EDGE ( 'NONE', *, *, #13, .F. ) ;
#143 = LINE ( 'NONE', #58, #207 ) ;
#144 = ADVANCED_FACE ( 'NONE', ( #16 ), #177, .T. ) ;
#145 = DIRECTION ( 'NONE',  ( -0.0000000000000000000, -6.838884057326508000E-020, 1.000000000000000000 ) ) ;
#146 = AXIS2_PLACEMENT_3D ( 'NONE', #92, #10, #206 ) ;
#147 = CARTESIAN_POINT ( 'NONE',  ( 0.0000000000000000000, -6.510897725981394100E-017, 952.0409574726242000 ) ) ;
#148 = ORIENTED_EDGE ( 'NONE', *, *, #8, .T. ) ;
#149 = DIRECTION ( 'NONE',  ( 0.0000000000000000000, 6.838884057326508000E-020, -1.000000000000000000 ) ) ;
#150 = DIRECTION ( 'NONE',  ( -0.0000000000000000000, -6.838884057326508000E-020, 1.000000000000000000 ) ) ;
#151 = LINE ( 'NONE', #9, #128 ) ;
#152 = CARTESIAN_POINT ( 'NONE',  ( 0.0000000000000000000, -3.375211167721349300E-036, 4.935324446837901100E-017 ) ) ;
#153 = EDGE_CURVE ( 'NONE', #131, #198, #186, .T. ) ;
#154 = SURFACE_SIDE_STYLE ('',( #109 ) ) ;
#155 = ORIENTED_EDGE ( 'NONE', *, *, #31, .T. ) ;
#156 = ORIENTED_EDGE ( 'NONE', *, *, #122, .T. ) ;
#157 = FACE_OUTER_BOUND ( 'NONE', #170, .T. ) ;
#158 = PRESENTATION_LAYER_ASSIGNMENT (  '', '', ( #172 ) ) ;
#159 = EDGE_CURVE ( 'NONE', #21, #32, #37, .T. ) ;
#160 = CARTESIAN_POINT ( 'NONE',  ( 0.0000000000000000000, -0.8064500000000030000, -5.515218048030984000E-020 ) ) ;
#161 = DIRECTION ( 'NONE',  ( 0.0000000000000000000, -1.000000000000000000, 0.0000000000000000000 ) ) ;
#162 = MECHANICAL_DESIGN_GEOMETRIC_PRESENTATION_REPRESENTATION (  '', ( #5 ), #168 ) ;
#163 = CARTESIAN_POINT ( 'NONE',  ( 0.0000000000000000000, 0.6451599999999988500, 4.939736621276325600E-017 ) ) ;
#164 = FACE_OUTER_BOUND ( 'NONE', #192, .T. ) ;
#165 = APPLICATION_PROTOCOL_DEFINITION ( 'draft international standard', 'automotive_design', 1998, #80 ) ;
#166 = PRODUCT_CONTEXT ( 'NONE', #121, 'mechanical' ) ;
#167 = DIRECTION ( 'NONE',  ( 1.000000000000000000, 0.0000000000000000000, 0.0000000000000000000 ) ) ;
#168 =( GEOMETRIC_REPRESENTATION_CONTEXT ( 3 ) GLOBAL_UNCERTAINTY_ASSIGNED_CONTEXT ( ( #91 ) ) GLOBAL_UNIT_ASSIGNED_CONTEXT ( ( #63, #137, #169 ) ) REPRESENTATION_CONTEXT ( 'NONE', 'WORKASPACE' ) );
#169 =( NAMED_UNIT ( * ) SI_UNIT ( $, .STERADIAN. ) SOLID_ANGLE_UNIT ( ) );
#170 = EDGE_LOOP ( 'NONE', ( #111, #116, #148, #210 ) ) ;
#171 = ORIENTED_EDGE ( 'NONE', *, *, #159, .T. ) ;
#172 = STYLED_ITEM ( 'NONE', ( #88 ), #79 ) ;
#173 = CONICAL_SURFACE ( 'NONE', #71, 0.6451599999999988500, 0.7853981633974402900 ) ;
#174 = CARTESIAN_POINT ( 'NONE',  ( 0.0000000000000000000, -0.8064500000000030000, -0.1612900000000067600 ) ) ;
#175 = AXIS2_PLACEMENT_3D ( 'NONE', #14, #60, #55 ) ;
#176 = DIRECTION ( 'NONE',  ( 0.0000000000000000000, -1.000000000000000000, 0.0000000000000000000 ) ) ;
#177 = CONICAL_SURFACE ( 'NONE', #4, 2414.213562373069200, 1.178097245096168600 ) ;
#178 = DIRECTION ( 'NONE',  ( 0.0000000000000000000, 1.000000000000000000, 6.838884057326508000E-020 ) ) ;
#179 = CARTESIAN_POINT ( 'NONE',  ( 0.0000000000000000000, -0.8064500000000058800, -47.62500000000000000 ) ) ;
#180 =( NAMED_UNIT ( * ) PLANE_ANGLE_UNIT ( ) SI_UNIT ( $, .RADIAN. ) );
#181 = EDGE_LOOP ( 'NONE', ( #73, #70, #126 ) ) ;
#182 = FILL_AREA_STYLE ('',( #84 ) ) ;
#183 = PRODUCT_DEFINITION ( 'UNKNOWN', '', #87, #188 ) ;
#184 = LINE ( 'NONE', #132, #141 ) ;
#185 = AXIS2_PLACEMENT_3D ( 'NONE', #18, #74, #176 ) ;
#186 = LINE ( 'NONE', #46, #41 ) ;
#187 = MANIFOLD_SOLID_BREP ( '¸ðµû±â1', #45 ) ;
#188 = PRODUCT_DEFINITION_CONTEXT ( 'detailed design', #80, 'design' ) ;
#189 = DIRECTION ( 'NONE',  ( 0.0000000000000000000, 0.7071067811865418000, -0.7071067811865531200 ) ) ;
#190 = ADVANCED_FACE ( 'NONE', ( #157 ), #173, .T. ) ;
#191 = CARTESIAN_POINT ( 'NONE',  ( 0.0000000000000000000, 1.103043609606238800E-020, -0.1612900000000067600 ) ) ;
#192 = EDGE_LOOP ( 'NONE', ( #199, #127, #69, #139 ) ) ;
#193 = AXIS2_PLACEMENT_3D ( 'NONE', #197, #118, #136 ) ;
#194 = FILL_AREA_STYLE_COLOUR ( '', #28 ) ;
#195 = LINE ( 'NONE', #135, #49 ) ;
#196 = DIRECTION ( 'NONE',  ( 1.131426112287698500E-016, 0.9238795325112853000, 0.3826834323650932800 ) ) ;
#197 = CARTESIAN_POINT ( 'NONE',  ( 0.0000000000000000000, 3.257018532301749700E-018, -47.62500000000000000 ) ) ;
#198 = VERTEX_POINT ( 'NONE', #22 ) ;
#199 = ORIENTED_EDGE ( 'NONE', *, *, #90, .T. ) ;
#200 = MECHANICAL_DESIGN_GEOMETRIC_PRESENTATION_REPRESENTATION (  '', ( #172 ), #203 ) ;
#201 = ORIENTED_EDGE ( 'NONE', *, *, #140, .F. ) ;
#202 = EDGE_LOOP ( 'NONE', ( #102, #65, #171, #106 ) ) ;
#203 =( GEOMETRIC_REPRESENTATION_CONTEXT ( 3 ) GLOBAL_UNCERTAINTY_ASSIGNED_CONTEXT ( ( #50 ) ) GLOBAL_UNIT_ASSIGNED_CONTEXT ( ( #103, #85, #1 ) ) REPRESENTATION_CONTEXT ( 'NONE', 'WORKASPACE' ) );
#204 = CONICAL_SURFACE ( 'NONE', #175, 0.6451599999999988500, 0.7853981633974402900 ) ;
#205 = EDGE_LOOP ( 'NONE', ( #7, #3, #201 ) ) ;
#206 = DIRECTION ( 'NONE',  ( 0.0000000000000000000, -1.000000000000000000, -6.838884057326509200E-020 ) ) ;
#207 = VECTOR ( 'NONE', #196, 1000.000000000000000 ) ;
#208 = DIRECTION ( 'NONE',  ( 8.659560562354862600E-017, -0.7071067811865418000, -0.7071067811865531200 ) ) ;
#209 = CARTESIAN_POINT ( 'NONE',  ( 0.0000000000000000000, 3.279863313451142900E-018, -47.95904252737578600 ) ) ;
#210 = ORIENTED_EDGE ( 'NONE', *, *, #94, .F. ) ;
#211 = UNCERTAINTY_MEASURE_WITH_UNIT (LENGTH_MEASURE( 1.000000000000000100E-005 ), #81, 'distance_accuracy_value', 'NONE');
#212 = CARTESIAN_POINT ( 'NONE',  ( 0.0000000000000000000, 0.8064500000000001100, 4.940839664885931800E-017 ) ) ;
#213 = PRESENTATION_LAYER_ASSIGNMENT (  '', '', ( #5 ) ) ;
#214 = CARTESIAN_POINT ( 'NONE',  ( 0.0000000000000000000, 0.0000000000000000000, 0.0000000000000000000 ) ) ;
ENDSEC;
END-ISO-10303-21;
