ISO-10303-21;
HEADER;
FILE_DESCRIPTION (( 'STEP AP214' ),
    '1' );
FILE_NAME ('03-0336.STEP',
    '2020-07-27T04:48:14',
    ( '' ),
    ( '' ),
    'SwSTEP 2.0',
    'SolidWorks 2014',
    '' );
FILE_SCHEMA (( 'AUTOMOTIVE_DESIGN' ));
ENDSEC;

DATA;
#1 = PRESENTATION_LAYER_ASSIGNMENT (  '', '', ( #19 ) ) ;
#2 =( NAMED_UNIT ( * ) SI_UNIT ( $, .STERADIAN. ) SOLID_ANGLE_UNIT ( ) );
#3 = EDGE_CURVE ( 'NONE', #73, #73, #14, .T. ) ;
#4 = CARTESIAN_POINT ( 'NONE',  ( 0.0000000000000000000, 0.7556500000000000400, 4.627021768878491200E-017 ) ) ;
#5 = CARTESIAN_POINT ( 'NONE',  ( -0.7556500000000031500, 0.0000000000000000000, -0.1511299999999948200 ) ) ;
#6 = MECHANICAL_DESIGN_GEOMETRIC_PRESENTATION_REPRESENTATION (  '', ( #82 ), #132 ) ;
#7 = DIRECTION ( 'NONE',  ( 0.0000000000000000000, 0.0000000000000000000, 1.000000000000000000 ) ) ;
#8 = APPLICATION_CONTEXT ( 'automotive_design' ) ;
#9 = EDGE_LOOP ( 'NONE', ( #125 ) ) ;
#10 = SURFACE_STYLE_FILL_AREA ( #67 ) ;
#11 = UNCERTAINTY_MEASURE_WITH_UNIT (LENGTH_MEASURE( 1.000000000000000100E-005 ), #25, 'distance_accuracy_value', 'NONE');
#12 = COLOUR_RGB ( '',0.7921568627450980000, 0.8196078431372548800, 0.9333333333333333500 ) ;
#13 = EDGE_CURVE ( 'NONE', #33, #33, #118, .T. ) ;
#14 = CIRCLE ( 'NONE', #48, 0.7556500000000061500 ) ;
#15 = PRESENTATION_LAYER_ASSIGNMENT (  '', '', ( #82 ) ) ;
#16 = CARTESIAN_POINT ( 'NONE',  ( 0.0000000000000000000, 0.0000000000000000000, 4.627021768878491200E-017 ) ) ;
#17 = FACE_BOUND ( 'NONE', #9, .T. ) ;
#18 = CARTESIAN_POINT ( 'NONE',  ( 0.0000000000000000000, 0.0000000000000000000, 952.0619995215927200 ) ) ;
#19 = STYLED_ITEM ( 'NONE', ( #22 ), #38 ) ;
#20 = PRODUCT_DEFINITION_CONTEXT ( 'detailed design', #57, 'design' ) ;
#21 = ADVANCED_FACE ( 'NONE', ( #91, #64 ), #112, .T. ) ;
#22 = PRESENTATION_STYLE_ASSIGNMENT (( #75 ) ) ;
#23 =( GEOMETRIC_REPRESENTATION_CONTEXT ( 3 ) GLOBAL_UNCERTAINTY_ASSIGNED_CONTEXT ( ( #11 ) ) GLOBAL_UNIT_ASSIGNED_CONTEXT ( ( #25, #40, #2 ) ) REPRESENTATION_CONTEXT ( 'NONE', 'WORKASPACE' ) );
#24 = SHAPE_DEFINITION_REPRESENTATION ( #109, #90 ) ;
#25 =( LENGTH_UNIT ( ) NAMED_UNIT ( * ) SI_UNIT ( .MILLI., .METRE. ) );
#26 = DIRECTION ( 'NONE',  ( 0.0000000000000000000, 0.0000000000000000000, -1.000000000000000000 ) ) ;
#27 = CARTESIAN_POINT ( 'NONE',  ( 0.7556500000000061500, 0.0000000000000000000, -47.62500000000000000 ) ) ;
#28 = PRODUCT_DEFINITION ( 'UNKNOWN', '', #37, #84 ) ;
#29 = PRODUCT_CONTEXT ( 'NONE', #130, 'mechanical' ) ;
#30 = AXIS2_PLACEMENT_3D ( 'NONE', #106, #7, #78 ) ;
#31 = PRODUCT_CONTEXT ( 'NONE', #8, 'mechanical' ) ;
#32 = ADVANCED_FACE ( 'NONE', ( #36, #17 ), #113, .T. ) ;
#33 = VERTEX_POINT ( 'NONE', #99 ) ;
#34 = ORIENTED_EDGE ( 'NONE', *, *, #3, .T. ) ;
#35 = EDGE_CURVE ( 'NONE', #79, #79, #62, .T. ) ;
#36 = FACE_OUTER_BOUND ( 'NONE', #81, .T. ) ;
#37 = PRODUCT_DEFINITION_FORMATION_WITH_SPECIFIED_SOURCE ( 'ANY', '', #70, .NOT_KNOWN. ) ;
#38 = MANIFOLD_SOLID_BREP ( '¸ðµû±â1', #111 ) ;
#39 = SURFACE_STYLE_USAGE ( .BOTH. , #69 ) ;
#40 =( NAMED_UNIT ( * ) PLANE_ANGLE_UNIT ( ) SI_UNIT ( $, .RADIAN. ) );
#41 = DIRECTION ( 'NONE',  ( 0.0000000000000000000, 0.0000000000000000000, 1.000000000000000000 ) ) ;
#42 = ORIENTED_EDGE ( 'NONE', *, *, #13, .T. ) ;
#43 = AXIS2_PLACEMENT_3D ( 'NONE', #16, #26, #51 ) ;
#44 = CARTESIAN_POINT ( 'NONE',  ( 0.0000000000000000000, 0.0000000000000000000, 0.0000000000000000000 ) ) ;
#45 = PRODUCT_DEFINITION_FORMATION_WITH_SPECIFIED_SOURCE ( 'ANY', '', #117, .NOT_KNOWN. ) ;
#46 = SURFACE_SIDE_STYLE ('',( #100 ) ) ;
#47 = DIRECTION ( 'NONE',  ( -0.0000000000000000000, -0.0000000000000000000, 1.000000000000000000 ) ) ;
#48 = AXIS2_PLACEMENT_3D ( 'NONE', #115, #116, #126 ) ;
#49 = DIRECTION ( 'NONE',  ( 1.000000000000000000, 0.0000000000000000000, 0.0000000000000000000 ) ) ;
#50 = FILL_AREA_STYLE_COLOUR ( '', #123 ) ;
#51 = DIRECTION ( 'NONE',  ( -1.000000000000000000, 0.0000000000000000000, 0.0000000000000000000 ) ) ;
#52 = APPLICATION_PROTOCOL_DEFINITION ( 'draft international standard', 'automotive_design', 1998, #57 ) ;
#53 = CARTESIAN_POINT ( 'NONE',  ( 0.0000000000000000000, 0.0000000000000000000, -0.1511299999999948200 ) ) ;
#54 = DIRECTION ( 'NONE',  ( 0.0000000000000000000, 0.0000000000000000000, -1.000000000000000000 ) ) ;
#55 = FILL_AREA_STYLE_COLOUR ( '', #12 ) ;
#56 = CARTESIAN_POINT ( 'NONE',  ( 0.0000000000000000000, 0.0000000000000000000, 0.0000000000000000000 ) ) ;
#57 = APPLICATION_CONTEXT ( 'automotive_design' ) ;
#58 = PRESENTATION_STYLE_ASSIGNMENT (( #39 ) ) ;
#59 = APPLICATION_CONTEXT ( 'automotive_design' ) ;
#60 = AXIS2_PLACEMENT_3D ( 'NONE', #74, #47, #96 ) ;
#61 = ORIENTED_EDGE ( 'NONE', *, *, #35, .F. ) ;
#62 = CIRCLE ( 'NONE', #120, 0.7556500000000031500 ) ;
#63 = AXIS2_PLACEMENT_3D ( 'NONE', #4, #85, #80 ) ;
#64 = FACE_OUTER_BOUND ( 'NONE', #93, .T. ) ;
#65 = DIRECTION ( 'NONE',  ( -1.000000000000000000, 0.0000000000000000000, 0.0000000000000000000 ) ) ;
#66 = DIRECTION ( 'NONE',  ( -0.0000000000000000000, -0.0000000000000000000, 1.000000000000000000 ) ) ;
#67 = FILL_AREA_STYLE ('',( #55 ) ) ;
#68 = EDGE_LOOP ( 'NONE', ( #42 ) ) ;
#69 = SURFACE_SIDE_STYLE ('',( #10 ) ) ;
#70 = PRODUCT ( '03-0336', '03-0336', '', ( #29 ) ) ;
#71 = APPLICATION_PROTOCOL_DEFINITION ( 'draft international standard', 'automotive_design', 1998, #59 ) ;
#72 = PRODUCT_RELATED_PRODUCT_CATEGORY ( 'part', '', ( #70 ) ) ;
#73 = VERTEX_POINT ( 'NONE', #27 ) ;
#74 = CARTESIAN_POINT ( 'NONE',  ( 0.0000000000000000000, 0.0000000000000000000, 4.627021768878491200E-017 ) ) ;
#75 = SURFACE_STYLE_USAGE ( .BOTH. , #46 ) ;
#76 = AXIS2_PLACEMENT_3D ( 'NONE', #18, #66, #119 ) ;
#77 =( NAMED_UNIT ( * ) SI_UNIT ( $, .STERADIAN. ) SOLID_ANGLE_UNIT ( ) );
#78 = DIRECTION ( 'NONE',  ( 1.000000000000000000, 0.0000000000000000000, 0.0000000000000000000 ) ) ;
#79 = VERTEX_POINT ( 'NONE', #5 ) ;
#80 = DIRECTION ( 'NONE',  ( -1.000000000000000000, 0.0000000000000000000, -0.0000000000000000000 ) ) ;
#81 = EDGE_LOOP ( 'NONE', ( #61 ) ) ;
#82 = STYLED_ITEM ( 'NONE', ( #58 ), #90 ) ;
#83 = UNCERTAINTY_MEASURE_WITH_UNIT (LENGTH_MEASURE( 1.000000000000000100E-005 ), #128, 'distance_accuracy_value', 'NONE');
#84 = PRODUCT_DEFINITION_CONTEXT ( 'detailed design', #59, 'design' ) ;
#85 = DIRECTION ( 'NONE',  ( 0.0000000000000000000, 0.0000000000000000000, -1.000000000000000000 ) ) ;
#86 = PLANE ( 'NONE',  #63 ) ;
#87 =( LENGTH_UNIT ( ) NAMED_UNIT ( * ) SI_UNIT ( .MILLI., .METRE. ) );
#88 = ORIENTED_EDGE ( 'NONE', *, *, #35, .T. ) ;
#89 = APPLICATION_PROTOCOL_DEFINITION ( 'draft international standard', 'automotive_design', 1998, #8 ) ;
#90 = ADVANCED_BREP_SHAPE_REPRESENTATION ( '03-0336', ( #38, #114 ), #135 ) ;
#91 = FACE_OUTER_BOUND ( 'NONE', #122, .T. ) ;
#92 = CONICAL_SURFACE ( 'NONE', #76, 2414.213562373046000, 1.178097245096165300 ) ;
#93 = EDGE_LOOP ( 'NONE', ( #34 ) ) ;
#94 = ORIENTED_EDGE ( 'NONE', *, *, #3, .F. ) ;
#95 = AXIS2_PLACEMENT_3D ( 'NONE', #44, #102, #49 ) ;
#96 = DIRECTION ( 'NONE',  ( -1.000000000000000000, 0.0000000000000000000, 0.0000000000000000000 ) ) ;
#97 =( NAMED_UNIT ( * ) PLANE_ANGLE_UNIT ( ) SI_UNIT ( $, .RADIAN. ) );
#98 =( NAMED_UNIT ( * ) PLANE_ANGLE_UNIT ( ) SI_UNIT ( $, .RADIAN. ) );
#99 = CARTESIAN_POINT ( 'NONE',  ( -0.6045200000000111600, 0.0000000000000000000, 4.627021768878491200E-017 ) ) ;
#100 = SURFACE_STYLE_FILL_AREA ( #104 ) ;
#101 = MECHANICAL_DESIGN_GEOMETRIC_PRESENTATION_REPRESENTATION (  '', ( #19 ), #23 ) ;
#102 = DIRECTION ( 'NONE',  ( -0.0000000000000000000, -0.0000000000000000000, 1.000000000000000000 ) ) ;
#103 = UNCERTAINTY_MEASURE_WITH_UNIT (LENGTH_MEASURE( 1.000000000000000100E-005 ), #87, 'distance_accuracy_value', 'NONE');
#104 = FILL_AREA_STYLE ('',( #50 ) ) ;
#105 =( NAMED_UNIT ( * ) SI_UNIT ( $, .STERADIAN. ) SOLID_ANGLE_UNIT ( ) );
#106 = CARTESIAN_POINT ( 'NONE',  ( 0.0000000000000000000, 0.0000000000000000000, 0.0000000000000000000 ) ) ;
#107 = FACE_OUTER_BOUND ( 'NONE', #121, .T. ) ;
#108 = APPLICATION_PROTOCOL_DEFINITION ( 'draft international standard', 'automotive_design', 1998, #130 ) ;
#109 = PRODUCT_DEFINITION_SHAPE ( 'NONE', 'NONE',  #28 ) ;
#110 = ADVANCED_FACE ( 'NONE', ( #107 ), #92, .T. ) ;
#111 = CLOSED_SHELL ( 'NONE', ( #133, #110, #21, #32 ) ) ;
#112 = CYLINDRICAL_SURFACE ( 'NONE', #95, 0.7556500000000031500 ) ;
#113 = CONICAL_SURFACE ( 'NONE', #43, 0.6045200000000111600, 0.7853981633974386200 ) ;
#114 = AXIS2_PLACEMENT_3D ( 'NONE', #56, #41, #129 ) ;
#115 = CARTESIAN_POINT ( 'NONE',  ( 0.0000000000000000000, 0.0000000000000000000, -47.62500000000000000 ) ) ;
#116 = DIRECTION ( 'NONE',  ( -0.0000000000000000000, -0.0000000000000000000, 1.000000000000000000 ) ) ;
#117 = PRODUCT ( '03-0336', '03-0336', '', ( #31 ) ) ;
#118 = CIRCLE ( 'NONE', #60, 0.6045200000000111600 ) ;
#119 = DIRECTION ( 'NONE',  ( 1.000000000000000000, 0.0000000000000000000, 0.0000000000000000000 ) ) ;
#120 = AXIS2_PLACEMENT_3D ( 'NONE', #53, #54, #65 ) ;
#121 = EDGE_LOOP ( 'NONE', ( #94 ) ) ;
#122 = EDGE_LOOP ( 'NONE', ( #88 ) ) ;
#123 = COLOUR_RGB ( '',0.7921568627450980000, 0.8196078431372548800, 0.9333333333333333500 ) ;
#124 = PRODUCT_RELATED_PRODUCT_CATEGORY ( 'part', '', ( #117 ) ) ;
#125 = ORIENTED_EDGE ( 'NONE', *, *, #13, .F. ) ;
#126 = DIRECTION ( 'NONE',  ( 1.000000000000000000, 0.0000000000000000000, 0.0000000000000000000 ) ) ;
#127 = PRODUCT_DEFINITION ( 'UNKNOWN', '', #45, #20 ) ;
#128 =( LENGTH_UNIT ( ) NAMED_UNIT ( * ) SI_UNIT ( .MILLI., .METRE. ) );
#129 = DIRECTION ( 'NONE',  ( 1.000000000000000000, 0.0000000000000000000, 0.0000000000000000000 ) ) ;
#130 = APPLICATION_CONTEXT ( 'automotive_design' ) ;
#131 = PRODUCT_DEFINITION_SHAPE ( 'NONE', 'NONE',  #127 ) ;
#132 =( GEOMETRIC_REPRESENTATION_CONTEXT ( 3 ) GLOBAL_UNCERTAINTY_ASSIGNED_CONTEXT ( ( #83 ) ) GLOBAL_UNIT_ASSIGNED_CONTEXT ( ( #128, #98, #77 ) ) REPRESENTATION_CONTEXT ( 'NONE', 'WORKASPACE' ) );
#133 = ADVANCED_FACE ( 'NONE', ( #134 ), #86, .F. ) ;
#134 = FACE_OUTER_BOUND ( 'NONE', #68, .T. ) ;
#135 =( GEOMETRIC_REPRESENTATION_CONTEXT ( 3 ) GLOBAL_UNCERTAINTY_ASSIGNED_CONTEXT ( ( #103 ) ) GLOBAL_UNIT_ASSIGNED_CONTEXT ( ( #87, #97, #105 ) ) REPRESENTATION_CONTEXT ( 'NONE', 'WORKASPACE' ) );
ENDSEC;
END-ISO-10303-21;
