ISO-10303-21;
HEADER;
FILE_DESCRIPTION (( 'STEP AP214' ),
    '1' );
FILE_NAME ('03-0338.STEP',
    '2020-07-27T04:48:54',
    ( '' ),
    ( '' ),
    'SwSTEP 2.0',
    'SolidWorks 2014',
    '' );
FILE_SCHEMA (( 'AUTOMOTIVE_DESIGN' ));
ENDSEC;

DATA;
#1 = MECHANICAL_DESIGN_GEOMETRIC_PRESENTATION_REPRESENTATION (  '', ( #125 ), #6 ) ;
#2 = DIRECTION ( 'NONE',  ( -0.0000000000000000000, -0.0000000000000000000, 1.000000000000000000 ) ) ;
#3 = FACE_OUTER_BOUND ( 'NONE', #14, .T. ) ;
#4 = DIRECTION ( 'NONE',  ( 0.0000000000000000000, 0.0000000000000000000, -1.000000000000000000 ) ) ;
#5 = CARTESIAN_POINT ( 'NONE',  ( -1.979630297847134100, 4.733341715024680600, -45.64868977889404500 ) ) ;
#6 =( GEOMETRIC_REPRESENTATION_CONTEXT ( 3 ) GLOBAL_UNCERTAINTY_ASSIGNED_CONTEXT ( ( #94 ) ) GLOBAL_UNIT_ASSIGNED_CONTEXT ( ( #114, #173, #116 ) ) REPRESENTATION_CONTEXT ( 'NONE', 'WORKASPACE' ) );
#7 = DIRECTION ( 'NONE',  ( -1.000000000000000000, 0.0000000000000000000, 0.0000000000000000000 ) ) ;
#8 = CIRCLE ( 'NONE', #55, 0.6604000000000032100 ) ;
#9 = CARTESIAN_POINT ( 'NONE',  ( -4.770428040004321500, 1.888488136975587700, -37.54921518375925900 ) ) ;
#10 = APPLICATION_CONTEXT ( 'automotive_design' ) ;
#11 = SHAPE_DEFINITION_REPRESENTATION ( #126, #18 ) ;
#12 = CARTESIAN_POINT ( 'NONE',  ( 3.701684549805095400, -3.552590973091465500, -34.39941865463648400 ) ) ;
#13 = CARTESIAN_POINT ( 'NONE',  ( 0.0000000000000000000, 0.0000000000000000000, 0.0000000000000000000 ) ) ;
#14 = EDGE_LOOP ( 'NONE', ( #41 ) ) ;
#15 = AXIS2_PLACEMENT_3D ( 'NONE', #185, #187, #33 ) ;
#16 = FILL_AREA_STYLE ('',( #62 ) ) ;
#17 = SURFACE_STYLE_USAGE ( .BOTH. , #79 ) ;
#18 = GEOMETRICALLY_BOUNDED_SURFACE_SHAPE_REPRESENTATION ( '03-0338', ( #111, #152 ), #180 ) ;
#19 = VERTEX_POINT ( 'NONE', #174 ) ;
#20 =( NAMED_UNIT ( * ) PLANE_ANGLE_UNIT ( ) SI_UNIT ( $, .RADIAN. ) );
#21 = CARTESIAN_POINT ( 'NONE',  ( 1.849212591050623000, 4.785789790764769500, -32.14956399098156200 ) ) ;
#22 = CARTESIAN_POINT ( 'NONE',  ( -1.875410334866041400, -4.775584488231217500, -35.74933145283196000 ) ) ;
#23 = APPLICATION_PROTOCOL_DEFINITION ( 'draft international standard', 'automotive_design', 1998, #72 ) ;
#24 = CARTESIAN_POINT ( 'NONE',  ( 3.542435223540755000, 3.711404560994959300, -32.59953492370807700 ) ) ;
#25 = ADVANCED_FACE ( 'NONE', ( #118 ), #141, .T. ) ;
#26 = CARTESIAN_POINT ( 'NONE',  ( -0.1265061771991509400, 5.129070804343336400, -31.69959305822992600 ) ) ;
#27 = UNCERTAINTY_MEASURE_WITH_UNIT (LENGTH_MEASURE( 1.000000000000000100E-005 ), #30, 'distance_accuracy_value', 'NONE');
#28 = PRODUCT ( '03-0338', '03-0338', '', ( #191 ) ) ;
#29 = DIRECTION ( 'NONE',  ( -1.000000000000000000, 0.0000000000000000000, -0.0000000000000000000 ) ) ;
#30 =( LENGTH_UNIT ( ) NAMED_UNIT ( * ) SI_UNIT ( .MILLI., .METRE. ) );
#31 = FACE_BOUND ( 'NONE', #160, .T. ) ;
#32 = PRODUCT_DEFINITION_SHAPE ( 'NONE', 'NONE',  #110 ) ;
#33 = DIRECTION ( 'NONE',  ( 1.000000000000000000, 0.0000000000000000000, 0.0000000000000000000 ) ) ;
#34 = PRODUCT_CONTEXT ( 'NONE', #10, 'mechanical' ) ;
#35 = CARTESIAN_POINT ( 'NONE',  ( 5.130322540261430800, 0.05622954065226362700, -40.69901171288314900 ) ) ;
#36 = AXIS2_PLACEMENT_3D ( 'NONE', #153, #139, #60 ) ;
#37 = CARTESIAN_POINT ( 'NONE',  ( -3.602968146650997700, -3.652669127802619500, -43.39883731230340700 ) ) ;
#38 = CARTESIAN_POINT ( 'NONE',  ( -2.031386724304362600, 4.711352152479904900, -38.44915704922289700 ) ) ;
#39 = CARTESIAN_POINT ( 'NONE',  ( -3.721096710171013700, 3.532252880450942500, -30.79965119256433000 ) ) ;
#40 =( GEOMETRIC_REPRESENTATION_CONTEXT ( 3 ) GLOBAL_UNCERTAINTY_ASSIGNED_CONTEXT ( ( #27 ) ) GLOBAL_UNIT_ASSIGNED_CONTEXT ( ( #30, #20, #65 ) ) REPRESENTATION_CONTEXT ( 'NONE', 'WORKASPACE' ) );
#41 = ORIENTED_EDGE ( 'NONE', *, *, #195, .T. ) ;
#42 = AXIS2_PLACEMENT_3D ( 'NONE', #113, #2, #46 ) ;
#43 = DIRECTION ( 'NONE',  ( 0.0000000000000000000, 0.0000000000000000000, -1.000000000000000000 ) ) ;
#44 = FACE_OUTER_BOUND ( 'NONE', #144, .T. ) ;
#45 = SURFACE_STYLE_USAGE ( .BOTH. , #117 ) ;
#46 = DIRECTION ( 'NONE',  ( -1.000000000000000000, 0.0000000000000000000, 0.0000000000000000000 ) ) ;
#47 = AXIS2_PLACEMENT_3D ( 'NONE', #169, #197, #112 ) ;
#48 = FILL_AREA_STYLE ('',( #184 ) ) ;
#49 = CARTESIAN_POINT ( 'NONE',  ( 0.0000000000000000000, 0.6604000000000002100, 4.043783730784566600E-017 ) ) ;
#50 = DIRECTION ( 'NONE',  ( 1.000000000000000000, 0.0000000000000000000, 0.0000000000000000000 ) ) ;
#51 = CARTESIAN_POINT ( 'NONE',  ( 3.740371546359668700, -3.511784829449295500, -27.19987554266588200 ) ) ;
#52 = CARTESIAN_POINT ( 'NONE',  ( -1.927636086256672600, -4.754743969375502000, -42.94886637572913900 ) ) ;
#53 = CARTESIAN_POINT ( 'NONE',  ( 4.694495489754871200, 2.070044256781318600, -33.04950585644133600 ) ) ;
#54 = CARTESIAN_POINT ( 'NONE',  ( 1.901551761607853400, 4.765235778666563800, -39.34909891468652200 ) ) ;
#55 = AXIS2_PLACEMENT_3D ( 'NONE', #128, #43, #61 ) ;
#56 = ORIENTED_EDGE ( 'NONE', *, *, #177, .T. ) ;
#57 = ADVANCED_FACE ( 'NONE', ( #63, #44 ), #124, .T. ) ;
#58 = ADVANCED_BREP_SHAPE_REPRESENTATION ( '03-0338', ( #167, #15 ), #40 ) ;
#59 = AXIS2_PLACEMENT_3D ( 'NONE', #140, #4, #7 ) ;
#60 = DIRECTION ( 'NONE',  ( 1.000000000000000000, 0.0000000000000000000, 0.0000000000000000000 ) ) ;
#61 = DIRECTION ( 'NONE',  ( -1.000000000000000000, 0.0000000000000000000, 0.0000000000000000000 ) ) ;
#62 = FILL_AREA_STYLE_COLOUR ( '', #146 ) ;
#63 = FACE_OUTER_BOUND ( 'NONE', #131, .T. ) ;
#64 = CARTESIAN_POINT ( 'NONE',  ( 0.0000000000000000000, 0.0000000000000000000, -47.62500000000000000 ) ) ;
#65 =( NAMED_UNIT ( * ) SI_UNIT ( $, .STERADIAN. ) SOLID_ANGLE_UNIT ( ) );
#66 = CARTESIAN_POINT ( 'NONE',  ( 4.716900356814653300, 2.018470250522403000, -40.24904078014989800 ) ) ;
#67 = UNCERTAINTY_MEASURE_WITH_UNIT (LENGTH_MEASURE( 1.000000000000000100E-005 ), #106, 'distance_accuracy_value', 'NONE');
#68 = CLOSED_SHELL ( 'NONE', ( #137, #25, #57, #164 ) ) ;
#69 = CIRCLE ( 'NONE', #42, 0.5283199999999987900 ) ;
#70 = CARTESIAN_POINT ( 'NONE',  ( -5.129937379890948000, -0.08434220031853900700, -37.09924425102742200 ) ) ;
#71 = APPLICATION_PROTOCOL_DEFINITION ( 'draft international standard', 'automotive_design', 1998, #193 ) ;
#72 = APPLICATION_CONTEXT ( 'automotive_design' ) ;
#73 = STYLED_ITEM ( 'NONE', ( #196 ), #58 ) ;
#74 = CARTESIAN_POINT ( 'NONE',  ( 0.1546090856350196600, -5.128298840881973900, -28.09982500850025000 ) ) ;
#75 = SURFACE_STYLE_FILL_AREA ( #48 ) ;
#76 = VERTEX_POINT ( 'NONE', #95 ) ;
#77 = PRODUCT_DEFINITION ( 'UNKNOWN', '', #96, #99 ) ;
#78 = PRODUCT_RELATED_PRODUCT_CATEGORY ( 'part', '', ( #28 ) ) ;
#79 = SURFACE_SIDE_STYLE ('',( #165 ) ) ;
#80 = AXIS2_PLACEMENT_3D ( 'NONE', #49, #98, #29 ) ;
#81 = CARTESIAN_POINT ( 'NONE',  ( -4.727890490312736600, -1.992591891812408400, -43.84880823069501300 ) ) ;
#82 = PRESENTATION_LAYER_ASSIGNMENT (  '', '', ( #73 ) ) ;
#83 = ORIENTED_EDGE ( 'NONE', *, *, #91, .F. ) ;
#84 = AXIS2_PLACEMENT_3D ( 'NONE', #64, #130, #154 ) ;
#85 = CARTESIAN_POINT ( 'NONE',  ( 3.662527340738833500, -3.592946507697732300, -41.59895357836128900 ) ) ;
#86 = APPLICATION_CONTEXT ( 'automotive_design' ) ;
#87 = CARTESIAN_POINT ( 'NONE',  ( 5.129398171564604400, 0.1124523272508101700, -33.49947678917276100 ) ) ;
#88 = SHAPE_DEFINITION_REPRESENTATION ( #32, #58 ) ;
#89 = APPLICATION_PROTOCOL_DEFINITION ( 'draft international standard', 'automotive_design', 1998, #10 ) ;
#90 = CARTESIAN_POINT ( 'NONE',  ( -4.683081393658439700, -2.095738436942028700, -29.44973840589620900 ) ) ;
#91 = EDGE_CURVE ( 'NONE', #190, #190, #8, .T. ) ;
#92 = EDGE_LOOP ( 'NONE', ( #83 ) ) ;
#93 = PLANE ( 'NONE',  #80 ) ;
#94 = UNCERTAINTY_MEASURE_WITH_UNIT (LENGTH_MEASURE( 1.000000000000000100E-005 ), #114, 'distance_accuracy_value', 'NONE');
#95 = CARTESIAN_POINT ( 'NONE',  ( 0.6604000000000063200, 0.0000000000000000000, -47.62500000000000000 ) ) ;
#96 = PRODUCT_DEFINITION_FORMATION_WITH_SPECIFIED_SOURCE ( 'ANY', '', #182, .NOT_KNOWN. ) ;
#97 = CARTESIAN_POINT ( 'NONE',  ( -0.01405764900110884200, 5.130576417486820700, -46.09867109392535400 ) ) ;
#98 = DIRECTION ( 'NONE',  ( 0.0000000000000000000, 0.0000000000000000000, -1.000000000000000000 ) ) ;
#99 = PRODUCT_DEFINITION_CONTEXT ( 'detailed design', #72, 'design' ) ;
#100 =( NAMED_UNIT ( * ) PLANE_ANGLE_UNIT ( ) SI_UNIT ( $, .RADIAN. ) );
#101 = CARTESIAN_POINT ( 'NONE',  ( -0.07028613431790437000, 5.130149216901919800, -38.89912798195473400 ) ) ;
#102 = ORIENTED_EDGE ( 'NONE', *, *, #195, .F. ) ;
#103 = CARTESIAN_POINT ( 'NONE',  ( -3.682161231464366100, 3.572822384874148500, -37.99918611649107400 ) ) ;
#104 = PRODUCT_RELATED_PRODUCT_CATEGORY ( 'part', '', ( #182 ) ) ;
#105 = CARTESIAN_POINT ( 'NONE',  ( 3.582897895225980500, 3.672358070877582000, -39.79906984741845100 ) ) ;
#106 =( LENGTH_UNIT ( ) NAMED_UNIT ( * ) SI_UNIT ( .MILLI., .METRE. ) );
#107 = MECHANICAL_DESIGN_GEOMETRIC_PRESENTATION_REPRESENTATION (  '', ( #73 ), #170 ) ;
#108 = ORIENTED_EDGE ( 'NONE', *, *, #91, .T. ) ;
#109 = CIRCLE ( 'NONE', #84, 0.6604000000000063200 ) ;
#110 = PRODUCT_DEFINITION ( 'UNKNOWN', '', #123, #183 ) ;
#111 = GEOMETRIC_CURVE_SET ( 'NONE', ( #138 ) ) ;
#112 = DIRECTION ( 'NONE',  ( 1.000000000000000000, 0.0000000000000000000, 0.0000000000000000000 ) ) ;
#113 = CARTESIAN_POINT ( 'NONE',  ( 0.0000000000000000000, 0.0000000000000000000, 4.043783730784566600E-017 ) ) ;
#114 =( LENGTH_UNIT ( ) NAMED_UNIT ( * ) SI_UNIT ( .MILLI., .METRE. ) );
#115 = CARTESIAN_POINT ( 'NONE',  ( -3.642783467218689200, 3.612960224208197500, -45.19872162809097200 ) ) ;
#116 =( NAMED_UNIT ( * ) SI_UNIT ( $, .STERADIAN. ) SOLID_ANGLE_UNIT ( ) );
#117 = SURFACE_SIDE_STYLE ('',( #75 ) ) ;
#118 = FACE_OUTER_BOUND ( 'NONE', #151, .T. ) ;
#119 = CARTESIAN_POINT ( 'NONE',  ( 4.800923657695123300, -1.809901247134140700, -26.74994335720322900 ) ) ;
#120 = CARTESIAN_POINT ( 'NONE',  ( -3.522044150215053900, -3.730760799413122000, -28.99976741964595200 ) ) ;
#121 = CARTESIAN_POINT ( 'NONE',  ( -1.822958824691060900, -4.795851839369214900, -28.54979668664762500 ) ) ;
#122 = CARTESIAN_POINT ( 'NONE',  ( 2.005538623443792600, -4.722413149638498500, -42.04892451101918700 ) ) ;
#123 = PRODUCT_DEFINITION_FORMATION_WITH_SPECIFIED_SOURCE ( 'ANY', '', #28, .NOT_KNOWN. ) ;
#124 = CYLINDRICAL_SURFACE ( 'NONE', #47, 0.6604000000000032100 ) ;
#125 = STYLED_ITEM ( 'NONE', ( #168 ), #167 ) ;
#126 = PRODUCT_DEFINITION_SHAPE ( 'NONE', 'NONE',  #77 ) ;
#127 = FACE_OUTER_BOUND ( 'NONE', #92, .T. ) ;
#128 = CARTESIAN_POINT ( 'NONE',  ( 0.0000000000000000000, 0.0000000000000000000, -0.1320800000000066100 ) ) ;
#129 =( NAMED_UNIT ( * ) SI_UNIT ( $, .STERADIAN. ) SOLID_ANGLE_UNIT ( ) );
#130 = DIRECTION ( 'NONE',  ( -0.0000000000000000000, -0.0000000000000000000, 1.000000000000000000 ) ) ;
#131 = EDGE_LOOP ( 'NONE', ( #108 ) ) ;
#132 = CARTESIAN_POINT ( 'NONE',  ( 5.000000000000008900, 0.0000000000000000000, -47.89854663659120600 ) ) ;
#133 = DIRECTION ( 'NONE',  ( 0.0000000000000000000, 0.0000000000000000000, 1.000000000000000000 ) ) ;
#134 = CARTESIAN_POINT ( 'NONE',  ( 5.127501379849364900, 0.1689943002700660900, -26.29982781769416500 ) ) ;
#135 = CARTESIAN_POINT ( 'NONE',  ( 2.108568780142251200, -4.677328041388205000, -27.64985685769717700 ) ) ;
#136 = CARTESIAN_POINT ( 'NONE',  ( -2.082899148674956600, 4.688806059377220900, -31.24962212557203100 ) ) ;
#137 = ADVANCED_FACE ( 'NONE', ( #3 ), #93, .F. ) ;
#138 = B_SPLINE_CURVE_WITH_KNOTS ( 'NONE', 3,
 ( #132, #142, #155, #157, #186, #97, #5, #115, #158, #175, #81, #37, #52, #189, #122, #85, #176, #35, #66, #105, #54, #101, #38, #103, #9, #70, #145, #161, #22, #162, #148, #12, #179, #87, #53, #24, #21, #26, #136, #39, #149, #166, #90, #120, #121, #74, #135, #51, #119, #134, #147, #194, #163 ),
 .UNSPECIFIED., .F., .F.,
 ( 4, 1, 1, 1, 1, 1, 1, 1, 1, 1, 1, 1, 1, 1, 1, 1, 1, 1, 1, 1, 1, 1, 1, 1, 1, 1, 1, 1, 1, 1, 1, 1, 1, 1, 1, 1, 1, 1, 1, 1, 1, 1, 1, 1, 1, 1, 1, 1, 1, 1, 4 ),
 ( 0.0000000000000000000, 0.02000000000000001800, 0.04000000000000003600, 0.06000000000000005300, 0.08000000000000007100, 0.1000000000000000900, 0.1200000000000001100, 0.1400000000000001000, 0.1600000000000001400, 0.1800000000000001300, 0.2000000000000001500, 0.2200000000000001400, 0.2400000000000001300, 0.2600000000000001200, 0.2800000000000001400, 0.3000000000000001600, 0.3200000000000001200, 0.3400000000000001900, 0.3600000000000002100, 0.3800000000000001700, 0.4000000000000001300, 0.4200000000000001000, 0.4400000000000000600, 0.4600000000000000200, 0.4799999999999999800, 0.5000000000000000000, 0.5199999999999999100, 0.5399999999999999200, 0.5599999999999998300, 0.5799999999999998500, 0.5999999999999997600, 0.6199999999999997700, 0.6399999999999996800, 0.6599999999999998100, 0.6799999999999998300, 0.6999999999999998400, 0.7199999999999998600, 0.7399999999999998800, 0.7599999999999999000, 0.7800000000000000300, 0.8000000000000000400, 0.8200000000000000600, 0.8400000000000000800, 0.8600000000000001000, 0.8800000000000001200, 0.9000000000000001300, 0.9200000000000002600, 0.9400000000000002800, 0.9600000000000003000, 0.9800000000000002000, 1.000000000000000000 ),
 .UNSPECIFIED. ) ;
#139 = DIRECTION ( 'NONE',  ( -0.0000000000000000000, -0.0000000000000000000, 1.000000000000000000 ) ) ;
#140 = CARTESIAN_POINT ( 'NONE',  ( 0.0000000000000000000, 0.0000000000000000000, 4.043783730784566600E-017 ) ) ;
#141 = CONICAL_SURFACE ( 'NONE', #36, 2414.213562373021400, 1.178097245096161800 ) ;
#142 = CARTESIAN_POINT ( 'NONE',  ( 5.000000000000008900, 0.6516312301342971300, -47.74947343533168700 ) ) ;
#143 =( NAMED_UNIT ( * ) SI_UNIT ( $, .STERADIAN. ) SOLID_ANGLE_UNIT ( ) );
#144 = EDGE_LOOP ( 'NONE', ( #56 ) ) ;
#145 = CARTESIAN_POINT ( 'NONE',  ( -4.705768578535560700, -2.044287947825454800, -36.64927331829562000 ) ) ;
#146 = COLOUR_RGB ( '',0.7921568627450980000, 0.8196078431372548800, 0.9333333333333333500 ) ;
#147 = CARTESIAN_POINT ( 'NONE',  ( 4.672856470908438800, 2.120127987805533000, -25.85039656480217800 ) ) ;
#148 = CARTESIAN_POINT ( 'NONE',  ( 2.057173824230854800, -4.700149676899284800, -34.84938958736832100 ) ) ;
#149 = CARTESIAN_POINT ( 'NONE',  ( -4.790838565944590700, 1.836092843624625800, -30.34968026086209400 ) ) ;
#150 = PRESENTATION_LAYER_ASSIGNMENT (  '', '', ( #125 ) ) ;
#151 = EDGE_LOOP ( 'NONE', ( #172 ) ) ;
#152 = AXIS2_PLACEMENT_3D ( 'NONE', #13, #133, #50 ) ;
#153 = CARTESIAN_POINT ( 'NONE',  ( 0.0000000000000000000, 0.0000000000000000000, 952.1014533634088400 ) ) ;
#154 = DIRECTION ( 'NONE',  ( 1.000000000000000000, 0.0000000000000000000, 0.0000000000000000000 ) ) ;
#155 = CARTESIAN_POINT ( 'NONE',  ( 4.738738649004809600, 1.968473088161334600, -47.44815007178904400 ) ) ;
#156 = CONICAL_SURFACE ( 'NONE', #59, 0.5283199999999987900, 0.7853981633974400600 ) ;
#157 = CARTESIAN_POINT ( 'NONE',  ( 3.622930203796822300, 3.632382993614212900, -46.99871881889706800 ) ) ;
#158 = CARTESIAN_POINT ( 'NONE',  ( -4.749444507129250100, 1.940657263764008000, -44.74874994994360800 ) ) ;
#159 = CARTESIAN_POINT ( 'NONE',  ( -0.6604000000000032100, 0.0000000000000000000, -0.1320800000000066100 ) ) ;
#160 = EDGE_LOOP ( 'NONE', ( #102 ) ) ;
#161 = CARTESIAN_POINT ( 'NONE',  ( -3.562720052215512000, -3.691936748902732800, -36.19930238556377600 ) ) ;
#162 = CARTESIAN_POINT ( 'NONE',  ( 0.09839763313562009700, -5.129687030818768500, -35.29936052010013700 ) ) ;
#163 = CARTESIAN_POINT ( 'NONE',  ( 3.412394372572412000, 3.654526596706622900, -25.40000000000002700 ) ) ;
#164 = ADVANCED_FACE ( 'NONE', ( #127, #31 ), #156, .T. ) ;
#165 = SURFACE_STYLE_FILL_AREA ( #16 ) ;
#166 = CARTESIAN_POINT ( 'NONE',  ( -5.128704940942671300, -0.1405590684880394000, -29.89970932428781200 ) ) ;
#167 = MANIFOLD_SOLID_BREP ( '¸ðµû±â1', #68 ) ;
#168 = PRESENTATION_STYLE_ASSIGNMENT (( #45 ) ) ;
#169 = CARTESIAN_POINT ( 'NONE',  ( 0.0000000000000000000, 0.0000000000000000000, 0.0000000000000000000 ) ) ;
#170 =( GEOMETRIC_REPRESENTATION_CONTEXT ( 3 ) GLOBAL_UNCERTAINTY_ASSIGNED_CONTEXT ( ( #171 ) ) GLOBAL_UNIT_ASSIGNED_CONTEXT ( ( #188, #100, #129 ) ) REPRESENTATION_CONTEXT ( 'NONE', 'WORKASPACE' ) );
#171 = UNCERTAINTY_MEASURE_WITH_UNIT (LENGTH_MEASURE( 1.000000000000000100E-005 ), #188, 'distance_accuracy_value', 'NONE');
#172 = ORIENTED_EDGE ( 'NONE', *, *, #177, .F. ) ;
#173 =( NAMED_UNIT ( * ) PLANE_ANGLE_UNIT ( ) SI_UNIT ( $, .RADIAN. ) );
#174 = CARTESIAN_POINT ( 'NONE',  ( -0.5283199999999987900, 0.0000000000000000000, 4.043783730784566600E-017 ) ) ;
#175 = CARTESIAN_POINT ( 'NONE',  ( -5.130553641110243000, -0.02811537288095710900, -44.29877921694527000 ) ) ;
#176 = CARTESIAN_POINT ( 'NONE',  ( 4.760007743197618900, -1.914601110672191200, -41.14898264560965700 ) ) ;
#177 = EDGE_CURVE ( 'NONE', #76, #76, #109, .T. ) ;
#178 = APPLICATION_PROTOCOL_DEFINITION ( 'draft international standard', 'automotive_design', 1998, #86 ) ;
#179 = CARTESIAN_POINT ( 'NONE',  ( 4.780705084636151600, -1.862318453458461600, -33.94944772190469000 ) ) ;
#180 =( GEOMETRIC_REPRESENTATION_CONTEXT ( 3 ) GLOBAL_UNCERTAINTY_ASSIGNED_CONTEXT ( ( #67 ) ) GLOBAL_UNIT_ASSIGNED_CONTEXT ( ( #106, #192, #143 ) ) REPRESENTATION_CONTEXT ( 'NONE', 'WORKASPACE' ) );
#181 = COLOUR_RGB ( '',0.7921568627450980000, 0.8196078431372548800, 0.9333333333333333500 ) ;
#182 = PRODUCT ( '03-0338', '03-0338', '', ( #34 ) ) ;
#183 = PRODUCT_DEFINITION_CONTEXT ( 'detailed design', #193, 'design' ) ;
#184 = FILL_AREA_STYLE_COLOUR ( '', #181 ) ;
#185 = CARTESIAN_POINT ( 'NONE',  ( 0.0000000000000000000, 0.0000000000000000000, 0.0000000000000000000 ) ) ;
#186 = CARTESIAN_POINT ( 'NONE',  ( 1.953662525520884800, 4.744240005287458000, -46.54860327938798300 ) ) ;
#187 = DIRECTION ( 'NONE',  ( 0.0000000000000000000, 0.0000000000000000000, 1.000000000000000000 ) ) ;
#188 =( LENGTH_UNIT ( ) NAMED_UNIT ( * ) SI_UNIT ( .MILLI., .METRE. ) );
#189 = CARTESIAN_POINT ( 'NONE',  ( 0.04217252486326326900, -5.130457349598207100, -42.49889544402689300 ) ) ;
#190 = VERTEX_POINT ( 'NONE', #159 ) ;
#191 = PRODUCT_CONTEXT ( 'NONE', #86, 'mechanical' ) ;
#192 =( NAMED_UNIT ( * ) PLANE_ANGLE_UNIT ( ) SI_UNIT ( $, .RADIAN. ) );
#193 = APPLICATION_CONTEXT ( 'automotive_design' ) ;
#194 = CARTESIAN_POINT ( 'NONE',  ( 3.888675104926499600, 3.209802048166080700, -25.54907320125953900 ) ) ;
#195 = EDGE_CURVE ( 'NONE', #19, #19, #69, .T. ) ;
#196 = PRESENTATION_STYLE_ASSIGNMENT (( #17 ) ) ;
#197 = DIRECTION ( 'NONE',  ( -0.0000000000000000000, -0.0000000000000000000, 1.000000000000000000 ) ) ;
ENDSEC;
END-ISO-10303-21;
