ISO-10303-21;
HEADER;
FILE_DESCRIPTION (( 'STEP AP214' ),
    '1' );
FILE_NAME ('03-0339.STEP',
    '2020-07-27T04:49:05',
    ( '' ),
    ( '' ),
    'SwSTEP 2.0',
    'SolidWorks 2014',
    '' );
FILE_SCHEMA (( 'AUTOMOTIVE_DESIGN' ));
ENDSEC;

DATA;
#1 = PRODUCT_DEFINITION_FORMATION_WITH_SPECIFIED_SOURCE ( 'ANY', '', #58, .NOT_KNOWN. ) ;
#2 = VERTEX_POINT ( 'NONE', #96 ) ;
#3 = PRODUCT_RELATED_PRODUCT_CATEGORY ( 'part', '', ( #58 ) ) ;
#4 = PRODUCT_CONTEXT ( 'NONE', #20, 'mechanical' ) ;
#5 = CARTESIAN_POINT ( 'NONE',  ( -1.991870602404883100, 4.727904338420851000, -36.25322027333344000 ) ) ;
#6 = CARTESIAN_POINT ( 'NONE',  ( 0.06486218489317345500, -5.129918038586468200, -27.00787711119641800 ) ) ;
#7 = PLANE ( 'NONE',  #108 ) ;
#8 = CARTESIAN_POINT ( 'NONE',  ( 0.04127689963599125800, -5.130197281541867000, -33.43942242469142200 ) ) ;
#9 = CARTESIAN_POINT ( 'NONE',  ( -0.5905500000000030200, 0.0000000000000000000, -0.1181099999999936900 ) ) ;
#10 = DIRECTION ( 'NONE',  ( -0.0000000000000000000, -0.0000000000000000000, 1.000000000000000000 ) ) ;
#11 =( LENGTH_UNIT ( ) NAMED_UNIT ( * ) SI_UNIT ( .MILLI., .METRE. ) );
#12 = CARTESIAN_POINT ( 'NONE',  ( 1.980996982784603700, -4.732470695292881200, -39.46898924315751600 ) ) ;
#13 = ADVANCED_BREP_SHAPE_REPRESENTATION ( '03-0339', ( #117, #60 ), #119 ) ;
#14 = CARTESIAN_POINT ( 'NONE',  ( -3.633963770382404600, 3.621452320840696800, -42.28278762126284800 ) ) ;
#15 = CARTESIAN_POINT ( 'NONE',  ( -1.970112894897153800, 4.737021491320135200, -42.68475623729839400 ) ) ;
#16 = CIRCLE ( 'NONE', #100, 0.5905500000000056800 ) ;
#17 = PRODUCT_DEFINITION ( 'UNKNOWN', '', #165, #57 ) ;
#18 = CARTESIAN_POINT ( 'NONE',  ( 3.675340510241069200, -3.578957323324555500, -26.20383953949386700 ) ) ;
#19 = CARTESIAN_POINT ( 'NONE',  ( -2.013586207011597700, 4.718696693339191800, -29.82168233431151400 ) ) ;
#20 = APPLICATION_CONTEXT ( 'automotive_design' ) ;
#21 = CARTESIAN_POINT ( 'NONE',  ( 0.0000000000000000000, 0.0000000000000000000, -0.1181099999999936900 ) ) ;
#22 = DIRECTION ( 'NONE',  ( 0.0000000000000000000, 0.0000000000000000000, -1.000000000000000000 ) ) ;
#23 =( NAMED_UNIT ( * ) SI_UNIT ( $, .STERADIAN. ) SOLID_ANGLE_UNIT ( ) );
#24 = FILL_AREA_STYLE_COLOUR ( '', #153 ) ;
#25 = DIRECTION ( 'NONE',  ( 0.0000000000000000000, 0.0000000000000000000, -1.000000000000000000 ) ) ;
#26 = PRODUCT_RELATED_PRODUCT_CATEGORY ( 'part', '', ( #31 ) ) ;
#27 = DIRECTION ( 'NONE',  ( 1.000000000000000000, 0.0000000000000000000, 0.0000000000000000000 ) ) ;
#28 =( LENGTH_UNIT ( ) NAMED_UNIT ( * ) SI_UNIT ( .MILLI., .METRE. ) );
#29 = ORIENTED_EDGE ( 'NONE', *, *, #147, .T. ) ;
#30 = CARTESIAN_POINT ( 'NONE',  ( 4.730190641477015000, 1.986435104721979300, -37.86110475827145200 ) ) ;
#31 = PRODUCT ( '03-0339', '03-0339', '', ( #4 ) ) ;
#32 =( GEOMETRIC_REPRESENTATION_CONTEXT ( 3 ) GLOBAL_UNCERTAINTY_ASSIGNED_CONTEXT ( ( #133 ) ) GLOBAL_UNIT_ASSIGNED_CONTEXT ( ( #11, #137, #141 ) ) REPRESENTATION_CONTEXT ( 'NONE', 'WORKASPACE' ) );
#33 = GEOMETRICALLY_BOUNDED_SURFACE_SHAPE_REPRESENTATION ( '03-0339', ( #152, #92 ), #71 ) ;
#34 = CONICAL_SURFACE ( 'NONE', #134, 2414.213562373005100, 1.178097245096159300 ) ;
#35 = EDGE_LOOP ( 'NONE', ( #29 ) ) ;
#36 = AXIS2_PLACEMENT_3D ( 'NONE', #189, #83, #111 ) ;
#37 = APPLICATION_PROTOCOL_DEFINITION ( 'draft international standard', 'automotive_design', 1998, #188 ) ;
#38 = ORIENTED_EDGE ( 'NONE', *, *, #147, .F. ) ;
#39 = CARTESIAN_POINT ( 'NONE',  ( 4.757138001422526400, -1.921006498013531100, -32.23350906098798400 ) ) ;
#40 = CIRCLE ( 'NONE', #75, 0.5905500000000030200 ) ;
#41 = CARTESIAN_POINT ( 'NONE',  ( -1.904591628360022800, -4.763743082603190800, -27.40985758196103100 ) ) ;
#42 = DIRECTION ( 'NONE',  ( -0.0000000000000000000, -0.0000000000000000000, 1.000000000000000000 ) ) ;
#43 = CARTESIAN_POINT ( 'NONE',  ( 4.739273333728595700, 1.966499544863868500, -44.29225940530308500 ) ) ;
#44 = CARTESIAN_POINT ( 'NONE',  ( -4.743777125902880700, 1.953767939133712600, -41.88081582876223800 ) ) ;
#45 = PRODUCT_DEFINITION_CONTEXT ( 'detailed design', #188, 'design' ) ;
#46 = PRESENTATION_LAYER_ASSIGNMENT (  '', '', ( #155 ) ) ;
#47 = CARTESIAN_POINT ( 'NONE',  ( 4.999524416476963200, 0.06896092408549976700, -25.39999999999999100 ) ) ;
#48 = APPLICATION_CONTEXT ( 'automotive_design' ) ;
#49 = DIRECTION ( 'NONE',  ( 0.0000000000000000000, 0.0000000000000000000, 1.000000000000000000 ) ) ;
#50 = EDGE_CURVE ( 'NONE', #122, #122, #40, .T. ) ;
#51 = CARTESIAN_POINT ( 'NONE',  ( -3.667109249658816200, 3.587887648183784300, -29.41971120961671500 ) ) ;
#52 = DIRECTION ( 'NONE',  ( -1.000000000000000000, 0.0000000000000000000, 0.0000000000000000000 ) ) ;
#53 = DIRECTION ( 'NONE',  ( -1.000000000000000000, 0.0000000000000000000, 0.0000000000000000000 ) ) ;
#54 = PRESENTATION_LAYER_ASSIGNMENT (  '', '', ( #181 ) ) ;
#55 = CARTESIAN_POINT ( 'NONE',  ( 0.01769025564606700400, -5.130332834665868100, -39.87096036464049600 ) ) ;
#56 = CARTESIAN_POINT ( 'NONE',  ( -5.130349777836415500, -0.01179369848117995000, -41.47884488739283900 ) ) ;
#57 = PRODUCT_DEFINITION_CONTEXT ( 'detailed design', #123, 'design' ) ;
#58 = PRODUCT ( '03-0339', '03-0339', '', ( #125 ) ) ;
#59 = B_SPLINE_CURVE_WITH_KNOTS ( 'NONE', 3,
 ( #128, #162, #43, #177, #142, #87, #15, #14, #44, #56, #163, #74, #178, #55, #12, #88, #114, #161, #30, #72, #176, #79, #5, #105, #95, #61, #156, #63, #94, #8, #185, #184, #39, #69, #139, #104, #138, #93, #19, #51, #173, #121, #167, #67, #41, #6, #120, #18, #109, #78, #47 ),
 .UNSPECIFIED., .F., .F.,
 ( 4, 1, 1, 1, 1, 1, 1, 1, 1, 1, 1, 1, 1, 1, 1, 1, 1, 1, 1, 1, 1, 1, 1, 1, 1, 1, 1, 1, 1, 1, 1, 1, 1, 1, 1, 1, 1, 1, 1, 1, 1, 1, 1, 1, 1, 1, 1, 1, 4 ),
 ( 0.0000000000000000000, 0.02083333333333335300, 0.04166666666666670600, 0.06250000000000005600, 0.08333333333333341200, 0.1041666666666667700, 0.1250000000000001100, 0.1458333333333334500, 0.1666666666666668200, 0.1875000000000001700, 0.2083333333333335400, 0.2291666666666668800, 0.2500000000000002200, 0.2708333333333335900, 0.2916666666666669600, 0.3125000000000003300, 0.3333333333333336500, 0.3541666666666669600, 0.3750000000000002800, 0.3958333333333335900, 0.4166666666666669100, 0.4375000000000002200, 0.4583333333333335400, 0.4791666666666669100, 0.5000000000000002200, 0.5208333333333334800, 0.5416666666666668500, 0.5625000000000002200, 0.5833333333333334800, 0.6041666666666668500, 0.6250000000000001100, 0.6458333333333334800, 0.6666666666666668500, 0.6875000000000001100, 0.7083333333333334800, 0.7291666666666668500, 0.7500000000000001100, 0.7708333333333334800, 0.7916666666666667400, 0.8125000000000001100, 0.8333333333333333700, 0.8541666666666667400, 0.8750000000000000000, 0.8958333333333333700, 0.9166666666666667400, 0.9375000000000000000, 0.9583333333333333700, 0.9791666666666666300, 1.000000000000000000 ),
 .UNSPECIFIED. ) ;
#60 = AXIS2_PLACEMENT_3D ( 'NONE', #84, #143, #27 ) ;
#61 = CARTESIAN_POINT ( 'NONE',  ( -5.130241335871779100, -0.03538030095914893000, -35.04730690962972500 ) ) ;
#62 = UNCERTAINTY_MEASURE_WITH_UNIT (LENGTH_MEASURE( 1.000000000000000100E-005 ), #112, 'distance_accuracy_value', 'NONE');
#63 = CARTESIAN_POINT ( 'NONE',  ( -3.600511043550167900, -3.654715878868923400, -34.24336466716057700 ) ) ;
#64 = ORIENTED_EDGE ( 'NONE', *, *, #50, .T. ) ;
#65 = APPLICATION_PROTOCOL_DEFINITION ( 'draft international standard', 'automotive_design', 1998, #48 ) ;
#66 = CARTESIAN_POINT ( 'NONE',  ( 0.0000000000000000000, 0.0000000000000000000, 3.616075836182346800E-017 ) ) ;
#67 = CARTESIAN_POINT ( 'NONE',  ( -3.583670380008540300, -3.671228160169803800, -27.81182619799658100 ) ) ;
#68 = PRESENTATION_STYLE_ASSIGNMENT (( #193 ) ) ;
#69 = CARTESIAN_POINT ( 'NONE',  ( 5.130146449779424200, 0.04717344378729622400, -31.83153793975213800 ) ) ;
#70 = DIRECTION ( 'NONE',  ( 1.000000000000000000, 0.0000000000000000000, 0.0000000000000000000 ) ) ;
#71 =( GEOMETRIC_REPRESENTATION_CONTEXT ( 3 ) GLOBAL_UNCERTAINTY_ASSIGNED_CONTEXT ( ( #151 ) ) GLOBAL_UNIT_ASSIGNED_CONTEXT ( ( #80, #136, #23 ) ) REPRESENTATION_CONTEXT ( 'NONE', 'WORKASPACE' ) );
#72 = CARTESIAN_POINT ( 'NONE',  ( 3.608902875497473200, 3.646429481726877900, -37.45913363703723300 ) ) ;
#73 = EDGE_LOOP ( 'NONE', ( #64 ) ) ;
#74 = CARTESIAN_POINT ( 'NONE',  ( -3.617275636764808700, -3.638123828649983100, -40.67490260964271400 ) ) ;
#75 = AXIS2_PLACEMENT_3D ( 'NONE', #21, #22, #52 ) ;
#76 = ADVANCED_FACE ( 'NONE', ( #103 ), #34, .T. ) ;
#77 = EDGE_LOOP ( 'NONE', ( #101 ) ) ;
#78 = CARTESIAN_POINT ( 'NONE',  ( 5.008502305035141200, -0.5819174342057031900, -25.53316449271085300 ) ) ;
#79 = CARTESIAN_POINT ( 'NONE',  ( -0.02948365554189632700, 5.130278612710915500, -36.65519139456801400 ) ) ;
#80 =( LENGTH_UNIT ( ) NAMED_UNIT ( * ) SI_UNIT ( .MILLI., .METRE. ) );
#81 = CARTESIAN_POINT ( 'NONE',  ( 0.0000000000000000000, 0.0000000000000000000, 0.0000000000000000000 ) ) ;
#82 = APPLICATION_PROTOCOL_DEFINITION ( 'draft international standard', 'automotive_design', 1998, #20 ) ;
#83 = DIRECTION ( 'NONE',  ( 0.0000000000000000000, 0.0000000000000000000, -1.000000000000000000 ) ) ;
#84 = CARTESIAN_POINT ( 'NONE',  ( 0.0000000000000000000, 0.0000000000000000000, 0.0000000000000000000 ) ) ;
#85 = PRODUCT_DEFINITION ( 'UNKNOWN', '', #1, #45 ) ;
#86 = FILL_AREA_STYLE ('',( #113 ) ) ;
#87 = CARTESIAN_POINT ( 'NONE',  ( -0.005896762268859945400, 5.130324688929417400, -43.08673670806300000 ) ) ;
#88 = CARTESIAN_POINT ( 'NONE',  ( 3.642279054546850400, -3.613091642801042900, -39.06701812198949900 ) ) ;
#89 = SHAPE_DEFINITION_REPRESENTATION ( #190, #33 ) ;
#90 = CIRCLE ( 'NONE', #146, 0.4724400000000114600 ) ;
#91 = AXIS2_PLACEMENT_3D ( 'NONE', #81, #174, #70 ) ;
#92 = AXIS2_PLACEMENT_3D ( 'NONE', #107, #49, #154 ) ;
#93 = CARTESIAN_POINT ( 'NONE',  ( -0.05306992562171103400, 5.130088841588420000, -30.22365345461891600 ) ) ;
#94 = CARTESIAN_POINT ( 'NONE',  ( -1.926473011804113800, -4.754926883220589300, -33.84139354592600300 ) ) ;
#95 = CARTESIAN_POINT ( 'NONE',  ( -4.752709483350657600, 1.931936980559185500, -35.44927803086429900 ) ) ;
#96 = CARTESIAN_POINT ( 'NONE',  ( 0.5905500000000056800, 0.0000000000000000000, -44.44999999999998900 ) ) ;
#97 =( NAMED_UNIT ( * ) PLANE_ANGLE_UNIT ( ) SI_UNIT ( $, .RADIAN. ) );
#98 = FACE_OUTER_BOUND ( 'NONE', #35, .T. ) ;
#99 = EDGE_LOOP ( 'NONE', ( #145 ) ) ;
#100 = AXIS2_PLACEMENT_3D ( 'NONE', #171, #42, #140 ) ;
#101 = ORIENTED_EDGE ( 'NONE', *, *, #179, .F. ) ;
#102 = SURFACE_STYLE_FILL_AREA ( #86 ) ;
#103 = FACE_OUTER_BOUND ( 'NONE', #183, .T. ) ;
#104 = CARTESIAN_POINT ( 'NONE',  ( 3.592100185267283600, 3.662982963306292500, -31.02759569726993000 ) ) ;
#105 = CARTESIAN_POINT ( 'NONE',  ( -3.650575091660154500, 3.604709340589589600, -35.85124915209885900 ) ) ;
#106 = CARTESIAN_POINT ( 'NONE',  ( -0.4724400000000114600, 0.0000000000000000000, 3.616075836182346800E-017 ) ) ;
#107 = CARTESIAN_POINT ( 'NONE',  ( 0.0000000000000000000, 0.0000000000000000000, 0.0000000000000000000 ) ) ;
#108 = AXIS2_PLACEMENT_3D ( 'NONE', #187, #25, #158 ) ;
#109 = CARTESIAN_POINT ( 'NONE',  ( 4.765944874832357800, -1.900947564190001300, -25.80235441395635800 ) ) ;
#110 = DIRECTION ( 'NONE',  ( -0.0000000000000000000, -0.0000000000000000000, 1.000000000000000000 ) ) ;
#111 = DIRECTION ( 'NONE',  ( -1.000000000000000000, 0.0000000000000000000, 0.0000000000000000000 ) ) ;
#112 =( LENGTH_UNIT ( ) NAMED_UNIT ( * ) SI_UNIT ( .MILLI., .METRE. ) );
#113 = FILL_AREA_STYLE_COLOUR ( '', #180 ) ;
#114 = CARTESIAN_POINT ( 'NONE',  ( 4.748255850332605600, -1.942857254070809100, -38.66504700073708300 ) ) ;
#115 = PRODUCT_DEFINITION_SHAPE ( 'NONE', 'NONE',  #85 ) ;
#116 = CONICAL_SURFACE ( 'NONE', #36, 0.4724400000000114600, 0.7853981633974391800 ) ;
#117 = MANIFOLD_SOLID_BREP ( '¸ðµû±â1', #186 ) ;
#118 = FACE_OUTER_BOUND ( 'NONE', #150, .T. ) ;
#119 =( GEOMETRIC_REPRESENTATION_CONTEXT ( 3 ) GLOBAL_UNCERTAINTY_ASSIGNED_CONTEXT ( ( #62 ) ) GLOBAL_UNIT_ASSIGNED_CONTEXT ( ( #112, #195, #127 ) ) REPRESENTATION_CONTEXT ( 'NONE', 'WORKASPACE' ) );
#120 = CARTESIAN_POINT ( 'NONE',  ( 2.024429892046731600, -4.714187023384343300, -26.60594088288298700 ) ) ;
#121 = CARTESIAN_POINT ( 'NONE',  ( -5.130024456741182300, -0.05896615560884857500, -28.61576893186657600 ) ) ;
#122 = VERTEX_POINT ( 'NONE', #9 ) ;
#123 = APPLICATION_CONTEXT ( 'automotive_design' ) ;
#124 = SURFACE_SIDE_STYLE ('',( #182 ) ) ;
#125 = PRODUCT_CONTEXT ( 'NONE', #48, 'mechanical' ) ;
#126 = CARTESIAN_POINT ( 'NONE',  ( 0.0000000000000000000, 0.0000000000000000000, 955.3053861807405800 ) ) ;
#127 =( NAMED_UNIT ( * ) SI_UNIT ( $, .STERADIAN. ) SOLID_ANGLE_UNIT ( ) );
#128 = CARTESIAN_POINT ( 'NONE',  ( 5.000000000000008900, 0.0000000000000000000, -44.69461381925943000 ) ) ;
#129 = FACE_BOUND ( 'NONE', #77, .T. ) ;
#130 = MECHANICAL_DESIGN_GEOMETRIC_PRESENTATION_REPRESENTATION (  '', ( #181 ), #191 ) ;
#131 = ADVANCED_FACE ( 'NONE', ( #135, #98 ), #157, .T. ) ;
#132 = ADVANCED_FACE ( 'NONE', ( #118 ), #7, .F. ) ;
#133 = UNCERTAINTY_MEASURE_WITH_UNIT (LENGTH_MEASURE( 1.000000000000000100E-005 ), #11, 'distance_accuracy_value', 'NONE');
#134 = AXIS2_PLACEMENT_3D ( 'NONE', #126, #10, #172 ) ;
#135 = FACE_OUTER_BOUND ( 'NONE', #73, .T. ) ;
#136 =( NAMED_UNIT ( * ) PLANE_ANGLE_UNIT ( ) SI_UNIT ( $, .RADIAN. ) );
#137 =( NAMED_UNIT ( * ) PLANE_ANGLE_UNIT ( ) SI_UNIT ( $, .RADIAN. ) );
#138 = CARTESIAN_POINT ( 'NONE',  ( 1.915537446408778200, 4.759342834784367100, -30.62562457610192700 ) ) ;
#139 = CARTESIAN_POINT ( 'NONE',  ( 4.721007965562093600, 2.008161278137945400, -31.42956681852233900 ) ) ;
#140 = DIRECTION ( 'NONE',  ( 1.000000000000000000, 0.0000000000000000000, 0.0000000000000000000 ) ) ;
#141 =( NAMED_UNIT ( * ) SI_UNIT ( $, .STERADIAN. ) SOLID_ANGLE_UNIT ( ) );
#142 = CARTESIAN_POINT ( 'NONE',  ( 1.959218396257791800, 4.741659936670148800, -43.48867293637643900 ) ) ;
#143 = DIRECTION ( 'NONE',  ( 0.0000000000000000000, 0.0000000000000000000, 1.000000000000000000 ) ) ;
#144 =( NAMED_UNIT ( * ) SI_UNIT ( $, .STERADIAN. ) SOLID_ANGLE_UNIT ( ) );
#145 = ORIENTED_EDGE ( 'NONE', *, *, #50, .F. ) ;
#146 = AXIS2_PLACEMENT_3D ( 'NONE', #66, #110, #53 ) ;
#147 = EDGE_CURVE ( 'NONE', #2, #2, #16, .T. ) ;
#148 = ADVANCED_FACE ( 'NONE', ( #166, #129 ), #116, .T. ) ;
#149 = PRESENTATION_STYLE_ASSIGNMENT (( #159 ) ) ;
#150 = EDGE_LOOP ( 'NONE', ( #194 ) ) ;
#151 = UNCERTAINTY_MEASURE_WITH_UNIT (LENGTH_MEASURE( 1.000000000000000100E-005 ), #80, 'distance_accuracy_value', 'NONE');
#152 = GEOMETRIC_CURVE_SET ( 'NONE', ( #59 ) ) ;
#153 = COLOUR_RGB ( '',0.7921568627450980000, 0.8196078431372548800, 0.9333333333333333500 ) ;
#154 = DIRECTION ( 'NONE',  ( 1.000000000000000000, 0.0000000000000000000, 0.0000000000000000000 ) ) ;
#155 = STYLED_ITEM ( 'NONE', ( #149 ), #117 ) ;
#156 = CARTESIAN_POINT ( 'NONE',  ( -4.725611789395776100, -1.997303468656443300, -34.64533578839515100 ) ) ;
#157 = CYLINDRICAL_SURFACE ( 'NONE', #91, 0.5905500000000030200 ) ;
#158 = DIRECTION ( 'NONE',  ( -1.000000000000000000, 0.0000000000000000000, -0.0000000000000000000 ) ) ;
#159 = SURFACE_STYLE_USAGE ( .BOTH. , #124 ) ;
#160 = MECHANICAL_DESIGN_GEOMETRIC_PRESENTATION_REPRESENTATION (  '', ( #155 ), #32 ) ;
#161 = CARTESIAN_POINT ( 'NONE',  ( 5.130309112010136700, 0.02358697116936222700, -38.26307587950730500 ) ) ;
#162 = CARTESIAN_POINT ( 'NONE',  ( 5.000000000000008900, 0.6509402735849235700, -44.56144932654856900 ) ) ;
#163 = CARTESIAN_POINT ( 'NONE',  ( -4.734744497609329800, -1.975556195085496700, -41.07687371796353700 ) ) ;
#164 = VERTEX_POINT ( 'NONE', #106 ) ;
#165 = PRODUCT_DEFINITION_FORMATION_WITH_SPECIFIED_SOURCE ( 'ANY', '', #31, .NOT_KNOWN. ) ;
#166 = FACE_OUTER_BOUND ( 'NONE', #99, .T. ) ;
#167 = CARTESIAN_POINT ( 'NONE',  ( -4.716379184949009800, -2.019009154017349200, -28.21379799049720200 ) ) ;
#168 = UNCERTAINTY_MEASURE_WITH_UNIT (LENGTH_MEASURE( 1.000000000000000100E-005 ), #28, 'distance_accuracy_value', 'NONE');
#169 = SHAPE_DEFINITION_REPRESENTATION ( #115, #13 ) ;
#170 = APPLICATION_PROTOCOL_DEFINITION ( 'draft international standard', 'automotive_design', 1998, #123 ) ;
#171 = CARTESIAN_POINT ( 'NONE',  ( 0.0000000000000000000, 0.0000000000000000000, -44.44999999999998900 ) ) ;
#172 = DIRECTION ( 'NONE',  ( 1.000000000000000000, 0.0000000000000000000, 0.0000000000000000000 ) ) ;
#173 = CARTESIAN_POINT ( 'NONE',  ( -4.761541380474736400, 1.910065815517680600, -29.01774010129588200 ) ) ;
#174 = DIRECTION ( 'NONE',  ( -0.0000000000000000000, -0.0000000000000000000, 1.000000000000000000 ) ) ;
#175 = FILL_AREA_STYLE ('',( #24 ) ) ;
#176 = CARTESIAN_POINT ( 'NONE',  ( 1.937398397059089600, 4.750485804742202100, -37.05716251580256000 ) ) ;
#177 = CARTESIAN_POINT ( 'NONE',  ( 3.625629283107625300, 3.629307880281044300, -43.89077427976554400 ) ) ;
#178 = CARTESIAN_POINT ( 'NONE',  ( -1.948313544436778500, -4.746019619571944400, -40.27293148494791100 ) ) ;
#179 = EDGE_CURVE ( 'NONE', #164, #164, #90, .T. ) ;
#180 = COLOUR_RGB ( '',0.7921568627450980000, 0.8196078431372548800, 0.9333333333333333500 ) ;
#181 = STYLED_ITEM ( 'NONE', ( #68 ), #13 ) ;
#182 = SURFACE_STYLE_FILL_AREA ( #175 ) ;
#183 = EDGE_LOOP ( 'NONE', ( #38 ) ) ;
#184 = CARTESIAN_POINT ( 'NONE',  ( 3.658851837883209300, -3.596307989925158200, -32.63548018222221000 ) ) ;
#185 = CARTESIAN_POINT ( 'NONE',  ( 2.002733696298054400, -4.723312997430576300, -33.03745130345688400 ) ) ;
#186 = CLOSED_SHELL ( 'NONE', ( #132, #76, #131, #148 ) ) ;
#187 = CARTESIAN_POINT ( 'NONE',  ( 0.0000000000000000000, 0.5905500000000004600, 3.616075836182346800E-017 ) ) ;
#188 = APPLICATION_CONTEXT ( 'automotive_design' ) ;
#189 = CARTESIAN_POINT ( 'NONE',  ( 0.0000000000000000000, 0.0000000000000000000, 3.616075836182346800E-017 ) ) ;
#190 = PRODUCT_DEFINITION_SHAPE ( 'NONE', 'NONE',  #17 ) ;
#191 =( GEOMETRIC_REPRESENTATION_CONTEXT ( 3 ) GLOBAL_UNCERTAINTY_ASSIGNED_CONTEXT ( ( #168 ) ) GLOBAL_UNIT_ASSIGNED_CONTEXT ( ( #28, #97, #144 ) ) REPRESENTATION_CONTEXT ( 'NONE', 'WORKASPACE' ) );
#192 = SURFACE_SIDE_STYLE ('',( #102 ) ) ;
#193 = SURFACE_STYLE_USAGE ( .BOTH. , #192 ) ;
#194 = ORIENTED_EDGE ( 'NONE', *, *, #179, .T. ) ;
#195 =( NAMED_UNIT ( * ) PLANE_ANGLE_UNIT ( ) SI_UNIT ( $, .RADIAN. ) );
ENDSEC;
END-ISO-10303-21;
