ISO-10303-21;
HEADER;
FILE_DESCRIPTION (( 'STEP AP214' ),
    '1' );
FILE_NAME ('03-0340.STEP',
    '2020-07-23T06:56:42',
    ( '' ),
    ( '' ),
    'SwSTEP 2.0',
    'SolidWorks 2014',
    '' );
FILE_SCHEMA (( 'AUTOMOTIVE_DESIGN' ));
ENDSEC;

DATA;
#1 = DIRECTION ( 'NONE',  ( -0.9238795325112878500, 1.131426112287701700E-016, 0.3826834323650871700 ) ) ;
#2 = CIRCLE ( 'NONE', #174, 0.7937500000000028400 ) ;
#3 = CARTESIAN_POINT ( 'NONE',  ( -0.6350000000000035600, 0.0000000000000000000, 4.860316984116057600E-017 ) ) ;
#4 = CARTESIAN_POINT ( 'NONE',  ( 0.6350000000000035600, 7.776507174585736000E-017, 4.860316984116057600E-017 ) ) ;
#5 = CARTESIAN_POINT ( 'NONE',  ( 0.0000000000000000000, 0.0000000000000000000, -47.95378201513364800 ) ) ;
#6 = DIRECTION ( 'NONE',  ( -1.000000000000000000, 0.0000000000000000000, 0.0000000000000000000 ) ) ;
#7 = ORIENTED_EDGE ( 'NONE', *, *, #176, .T. ) ;
#8 = VECTOR ( 'NONE', #23, 1000.000000000000100 ) ;
#9 = PRESENTATION_STYLE_ASSIGNMENT (( #184 ) ) ;
#10 = LINE ( 'NONE', #3, #67 ) ;
#11 = AXIS2_PLACEMENT_3D ( 'NONE', #185, #143, #161 ) ;
#12 = EDGE_LOOP ( 'NONE', ( #166, #104, #178, #140 ) ) ;
#13 = CYLINDRICAL_SURFACE ( 'NONE', #169, 0.7937500000000028400 ) ;
#14 = AXIS2_PLACEMENT_3D ( 'NONE', #197, #102, #186 ) ;
#15 = DIRECTION ( 'NONE',  ( 0.0000000000000000000, 0.0000000000000000000, 1.000000000000000000 ) ) ;
#16 = ORIENTED_EDGE ( 'NONE', *, *, #28, .F. ) ;
#17 = CONICAL_SURFACE ( 'NONE', #209, 0.6350000000000035600, 0.7853981633974394000 ) ;
#18 = DIRECTION ( 'NONE',  ( -0.0000000000000000000, -0.0000000000000000000, 1.000000000000000000 ) ) ;
#19 = DIRECTION ( 'NONE',  ( -0.0000000000000000000, -0.0000000000000000000, 1.000000000000000000 ) ) ;
#20 = FACE_OUTER_BOUND ( 'NONE', #79, .T. ) ;
#21 = AXIS2_PLACEMENT_3D ( 'NONE', #114, #19, #150 ) ;
#22 = DIRECTION ( 'NONE',  ( -1.000000000000000000, 0.0000000000000000000, 0.0000000000000000000 ) ) ;
#23 = DIRECTION ( 'NONE',  ( 0.7071067811865412400, 8.659560562354855200E-017, -0.7071067811865536800 ) ) ;
#24 = FACE_OUTER_BOUND ( 'NONE', #159, .T. ) ;
#25 = CARTESIAN_POINT ( 'NONE',  ( 0.0000000000000000000, 0.0000000000000000000, 0.0000000000000000000 ) ) ;
#26 = AXIS2_PLACEMENT_3D ( 'NONE', #101, #38, #52 ) ;
#27 = EDGE_CURVE ( 'NONE', #154, #211, #36, .T. ) ;
#28 = EDGE_CURVE ( 'NONE', #211, #126, #117, .T. ) ;
#29 = MANIFOLD_SOLID_BREP ( '¸ðµû±â1', #188 ) ;
#30 = ORIENTED_EDGE ( 'NONE', *, *, #76, .T. ) ;
#31 = PRODUCT_CONTEXT ( 'NONE', #128, 'mechanical' ) ;
#32 = ORIENTED_EDGE ( 'NONE', *, *, #76, .F. ) ;
#33 = AXIS2_PLACEMENT_3D ( 'NONE', #199, #201, #6 ) ;
#34 = CIRCLE ( 'NONE', #78, 0.6350000000000035600 ) ;
#35 = FILL_AREA_STYLE ('',( #49 ) ) ;
#36 = CIRCLE ( 'NONE', #162, 0.7937500000000057300 ) ;
#37 = DIRECTION ( 'NONE',  ( 0.9238795325112878500, 0.0000000000000000000, 0.3826834323650871700 ) ) ;
#38 = DIRECTION ( 'NONE',  ( -0.0000000000000000000, -0.0000000000000000000, 1.000000000000000000 ) ) ;
#39 = DIRECTION ( 'NONE',  ( 0.0000000000000000000, 0.0000000000000000000, -1.000000000000000000 ) ) ;
#40 = ORIENTED_EDGE ( 'NONE', *, *, #204, .F. ) ;
#41 = COLOUR_RGB ( '',0.7921568627450980000, 0.8196078431372548800, 0.9333333333333333500 ) ;
#42 = ORIENTED_EDGE ( 'NONE', *, *, #203, .T. ) ;
#43 = CARTESIAN_POINT ( 'NONE',  ( 0.0000000000000000000, 0.0000000000000000000, -0.1587500000000019500 ) ) ;
#44 = FACE_OUTER_BOUND ( 'NONE', #195, .T. ) ;
#45 = ADVANCED_FACE ( 'NONE', ( #182 ), #94, .T. ) ;
#46 = CARTESIAN_POINT ( 'NONE',  ( 0.7937500000000028400, 0.0000000000000000000, 0.0000000000000000000 ) ) ;
#47 = ORIENTED_EDGE ( 'NONE', *, *, #107, .T. ) ;
#48 = SURFACE_STYLE_FILL_AREA ( #35 ) ;
#49 = FILL_AREA_STYLE_COLOUR ( '', #41 ) ;
#50 = LINE ( 'NONE', #135, #152 ) ;
#51 = CARTESIAN_POINT ( 'NONE',  ( 0.7937500000000028400, 0.0000000000000000000, -0.1587500000000019500 ) ) ;
#52 = DIRECTION ( 'NONE',  ( 1.000000000000000000, 0.0000000000000000000, 0.0000000000000000000 ) ) ;
#53 = DIRECTION ( 'NONE',  ( -1.000000000000000000, 0.0000000000000000000, 0.0000000000000000000 ) ) ;
#54 = PRODUCT_DEFINITION_SHAPE ( 'NONE', 'NONE',  #109 ) ;
#55 = CARTESIAN_POINT ( 'NONE',  ( -0.7937500000000028400, 9.720633968232150900E-017, 0.0000000000000000000 ) ) ;
#56 = PRODUCT ( '03-0340', '03-0340', '', ( #31 ) ) ;
#57 = ORIENTED_EDGE ( 'NONE', *, *, #81, .F. ) ;
#58 = PRODUCT_RELATED_PRODUCT_CATEGORY ( 'part', '', ( #56 ) ) ;
#59 = VERTEX_POINT ( 'NONE', #119 ) ;
#60 = ORIENTED_EDGE ( 'NONE', *, *, #124, .F. ) ;
#61 = CIRCLE ( 'NONE', #133, 0.7937500000000028400 ) ;
#62 = FILL_AREA_STYLE_COLOUR ( '', #167 ) ;
#63 = APPLICATION_PROTOCOL_DEFINITION ( 'draft international standard', 'automotive_design', 1998, #180 ) ;
#64 = ORIENTED_EDGE ( 'NONE', *, *, #71, .F. ) ;
#65 = ADVANCED_FACE ( 'NONE', ( #175 ), #148, .T. ) ;
#66 = SURFACE_SIDE_STYLE ('',( #48 ) ) ;
#67 = VECTOR ( 'NONE', #157, 1000.000000000000100 ) ;
#68 = EDGE_CURVE ( 'NONE', #59, #126, #75, .T. ) ;
#69 = PLANE ( 'NONE',  #11 ) ;
#70 = CARTESIAN_POINT ( 'NONE',  ( -0.6350000000000035600, 0.0000000000000000000, 4.860316984116057600E-017 ) ) ;
#71 = EDGE_CURVE ( 'NONE', #179, #154, #142, .T. ) ;
#72 =( LENGTH_UNIT ( ) NAMED_UNIT ( * ) SI_UNIT ( .MILLI., .METRE. ) );
#73 = ORIENTED_EDGE ( 'NONE', *, *, #105, .F. ) ;
#74 = ORIENTED_EDGE ( 'NONE', *, *, #105, .T. ) ;
#75 = LINE ( 'NONE', #4, #8 ) ;
#76 = EDGE_CURVE ( 'NONE', #112, #126, #61, .T. ) ;
#77 =( NAMED_UNIT ( * ) PLANE_ANGLE_UNIT ( ) SI_UNIT ( $, .RADIAN. ) );
#78 = AXIS2_PLACEMENT_3D ( 'NONE', #106, #103, #53 ) ;
#79 = EDGE_LOOP ( 'NONE', ( #163, #181, #32, #147 ) ) ;
#80 = DIRECTION ( 'NONE',  ( 0.0000000000000000000, 0.0000000000000000000, -1.000000000000000000 ) ) ;
#81 = EDGE_CURVE ( 'NONE', #211, #154, #90, .T. ) ;
#82 = DIRECTION ( 'NONE',  ( 1.000000000000000000, 0.0000000000000000000, 0.0000000000000000000 ) ) ;
#83 = CARTESIAN_POINT ( 'NONE',  ( 0.0000000000000000000, 0.0000000000000000000, 952.0462179848663000 ) ) ;
#84 = DIRECTION ( 'NONE',  ( -0.0000000000000000000, -0.0000000000000000000, 1.000000000000000000 ) ) ;
#85 = EDGE_LOOP ( 'NONE', ( #202, #40, #42, #60 ) ) ;
#86 = MECHANICAL_DESIGN_GEOMETRIC_PRESENTATION_REPRESENTATION (  '', ( #149 ), #95 ) ;
#87 = VECTOR ( 'NONE', #200, 1000.000000000000000 ) ;
#88 = AXIS2_PLACEMENT_3D ( 'NONE', #83, #187, #82 ) ;
#89 = VERTEX_POINT ( 'NONE', #70 ) ;
#90 = CIRCLE ( 'NONE', #26, 0.7937500000000057300 ) ;
#91 = DIRECTION ( 'NONE',  ( 0.0000000000000000000, 0.0000000000000000000, -1.000000000000000000 ) ) ;
#92 = DIRECTION ( 'NONE',  ( 1.000000000000000000, 0.0000000000000000000, 0.0000000000000000000 ) ) ;
#93 = UNCERTAINTY_MEASURE_WITH_UNIT (LENGTH_MEASURE( 1.000000000000000100E-005 ), #72, 'distance_accuracy_value', 'NONE');
#94 = CYLINDRICAL_SURFACE ( 'NONE', #21, 0.7937500000000028400 ) ;
#95 =( GEOMETRIC_REPRESENTATION_CONTEXT ( 3 ) GLOBAL_UNCERTAINTY_ASSIGNED_CONTEXT ( ( #191 ) ) GLOBAL_UNIT_ASSIGNED_CONTEXT ( ( #98, #214, #132 ) ) REPRESENTATION_CONTEXT ( 'NONE', 'WORKASPACE' ) );
#96 = ORIENTED_EDGE ( 'NONE', *, *, #204, .T. ) ;
#97 = PRESENTATION_STYLE_ASSIGNMENT (( #137 ) ) ;
#98 =( LENGTH_UNIT ( ) NAMED_UNIT ( * ) SI_UNIT ( .MILLI., .METRE. ) );
#99 = AXIS2_PLACEMENT_3D ( 'NONE', #120, #116, #22 ) ;
#100 = SHAPE_DEFINITION_REPRESENTATION ( #54, #155 ) ;
#101 = CARTESIAN_POINT ( 'NONE',  ( 0.0000000000000000000, 0.0000000000000000000, -47.62500000000000000 ) ) ;
#102 = DIRECTION ( 'NONE',  ( -0.0000000000000000000, -0.0000000000000000000, 1.000000000000000000 ) ) ;
#103 = DIRECTION ( 'NONE',  ( -0.0000000000000000000, -0.0000000000000000000, 1.000000000000000000 ) ) ;
#104 = ORIENTED_EDGE ( 'NONE', *, *, #27, .T. ) ;
#105 = EDGE_CURVE ( 'NONE', #179, #211, #50, .T. ) ;
#106 = CARTESIAN_POINT ( 'NONE',  ( 0.0000000000000000000, 0.0000000000000000000, 4.860316984116057600E-017 ) ) ;
#107 = EDGE_CURVE ( 'NONE', #154, #112, #206, .T. ) ;
#108 = CARTESIAN_POINT ( 'NONE',  ( 0.0000000000000000000, 0.0000000000000000000, 0.0000000000000000000 ) ) ;
#109 = PRODUCT_DEFINITION ( 'UNKNOWN', '', #190, #177 ) ;
#110 = CARTESIAN_POINT ( 'NONE',  ( 0.0000000000000000000, 0.0000000000000000000, -47.62500000000000000 ) ) ;
#111 = MECHANICAL_DESIGN_GEOMETRIC_PRESENTATION_REPRESENTATION (  '', ( #183 ), #212 ) ;
#112 = VERTEX_POINT ( 'NONE', #198 ) ;
#113 = ADVANCED_FACE ( 'NONE', ( #145 ), #123, .T. ) ;
#114 = CARTESIAN_POINT ( 'NONE',  ( 0.0000000000000000000, 0.0000000000000000000, 0.0000000000000000000 ) ) ;
#115 = FACE_OUTER_BOUND ( 'NONE', #144, .T. ) ;
#116 = DIRECTION ( 'NONE',  ( 0.0000000000000000000, 0.0000000000000000000, -1.000000000000000000 ) ) ;
#117 = LINE ( 'NONE', #46, #213 ) ;
#118 = PRESENTATION_LAYER_ASSIGNMENT (  '', '', ( #183 ) ) ;
#119 = CARTESIAN_POINT ( 'NONE',  ( 0.6350000000000035600, 8.748570571408944100E-017, 4.860316984116057600E-017 ) ) ;
#120 = CARTESIAN_POINT ( 'NONE',  ( 0.0000000000000000000, 0.0000000000000000000, 4.860316984116057600E-017 ) ) ;
#121 = CARTESIAN_POINT ( 'NONE',  ( -0.7937500000000059500, 9.720633968232189200E-017, -47.62500000000000000 ) ) ;
#122 = CARTESIAN_POINT ( 'NONE',  ( 0.0000000000000000000, 0.0000000000000000000, 4.860316984116057600E-017 ) ) ;
#123 = CONICAL_SURFACE ( 'NONE', #99, 0.6350000000000035600, 0.7853981633974394000 ) ;
#124 = EDGE_CURVE ( 'NONE', #126, #112, #2, .T. ) ;
#125 = DIRECTION ( 'NONE',  ( -1.000000000000000000, 0.0000000000000000000, 0.0000000000000000000 ) ) ;
#126 = VERTEX_POINT ( 'NONE', #51 ) ;
#127 = AXIS2_PLACEMENT_3D ( 'NONE', #108, #15, #92 ) ;
#128 = APPLICATION_CONTEXT ( 'automotive_design' ) ;
#129 = DIRECTION ( 'NONE',  ( -0.0000000000000000000, -0.0000000000000000000, 1.000000000000000000 ) ) ;
#130 = ORIENTED_EDGE ( 'NONE', *, *, #81, .T. ) ;
#131 = ADVANCED_FACE ( 'NONE', ( #115 ), #69, .F. ) ;
#132 =( NAMED_UNIT ( * ) SI_UNIT ( $, .STERADIAN. ) SOLID_ANGLE_UNIT ( ) );
#133 = AXIS2_PLACEMENT_3D ( 'NONE', #172, #80, #156 ) ;
#134 = SURFACE_STYLE_FILL_AREA ( #146 ) ;
#135 = CARTESIAN_POINT ( 'NONE',  ( 0.0000000000000000000, 0.0000000000000000000, -47.95378201513364800 ) ) ;
#136 = CARTESIAN_POINT ( 'NONE',  ( 0.7937500000000059500, 0.0000000000000000000, -47.62500000000000000 ) ) ;
#137 = SURFACE_STYLE_USAGE ( .BOTH. , #165 ) ;
#138 = DIRECTION ( 'NONE',  ( 1.000000000000000000, 0.0000000000000000000, 0.0000000000000000000 ) ) ;
#139 =( GEOMETRIC_REPRESENTATION_CONTEXT ( 3 ) GLOBAL_UNCERTAINTY_ASSIGNED_CONTEXT ( ( #93 ) ) GLOBAL_UNIT_ASSIGNED_CONTEXT ( ( #72, #77, #153 ) ) REPRESENTATION_CONTEXT ( 'NONE', 'WORKASPACE' ) );
#140 = ORIENTED_EDGE ( 'NONE', *, *, #124, .T. ) ;
#141 = VECTOR ( 'NONE', #1, 1000.000000000000000 ) ;
#142 = LINE ( 'NONE', #171, #141 ) ;
#143 = DIRECTION ( 'NONE',  ( 0.0000000000000000000, 0.0000000000000000000, -1.000000000000000000 ) ) ;
#144 = EDGE_LOOP ( 'NONE', ( #96, #7 ) ) ;
#145 = FACE_OUTER_BOUND ( 'NONE', #85, .T. ) ;
#146 = FILL_AREA_STYLE ('',( #62 ) ) ;
#147 = ORIENTED_EDGE ( 'NONE', *, *, #203, .F. ) ;
#148 = CONICAL_SURFACE ( 'NONE', #14, 2414.213562373114700, 1.178097245096175300 ) ;
#149 = STYLED_ITEM ( 'NONE', ( #9 ), #29 ) ;
#150 = DIRECTION ( 'NONE',  ( 1.000000000000000000, 0.0000000000000000000, 0.0000000000000000000 ) ) ;
#151 = ADVANCED_FACE ( 'NONE', ( #24 ), #193, .T. ) ;
#152 = VECTOR ( 'NONE', #37, 1000.000000000000000 ) ;
#153 =( NAMED_UNIT ( * ) SI_UNIT ( $, .STERADIAN. ) SOLID_ANGLE_UNIT ( ) );
#154 = VERTEX_POINT ( 'NONE', #121 ) ;
#155 = ADVANCED_BREP_SHAPE_REPRESENTATION ( '03-0340', ( #29, #127 ), #139 ) ;
#156 = DIRECTION ( 'NONE',  ( -1.000000000000000000, 0.0000000000000000000, 0.0000000000000000000 ) ) ;
#157 = DIRECTION ( 'NONE',  ( -0.7071067811865412400, 0.0000000000000000000, -0.7071067811865536800 ) ) ;
#158 = DIRECTION ( 'NONE',  ( -1.000000000000000000, 0.0000000000000000000, 0.0000000000000000000 ) ) ;
#159 = EDGE_LOOP ( 'NONE', ( #73, #205, #57 ) ) ;
#160 = PRESENTATION_LAYER_ASSIGNMENT (  '', '', ( #149 ) ) ;
#161 = DIRECTION ( 'NONE',  ( -1.000000000000000000, 0.0000000000000000000, -0.0000000000000000000 ) ) ;
#162 = AXIS2_PLACEMENT_3D ( 'NONE', #110, #18, #168 ) ;
#163 = ORIENTED_EDGE ( 'NONE', *, *, #176, .F. ) ;
#164 =( NAMED_UNIT ( * ) SI_UNIT ( $, .STERADIAN. ) SOLID_ANGLE_UNIT ( ) );
#165 = SURFACE_SIDE_STYLE ('',( #134 ) ) ;
#166 = ORIENTED_EDGE ( 'NONE', *, *, #107, .F. ) ;
#167 = COLOUR_RGB ( '',0.7921568627450980000, 0.8196078431372548800, 0.9333333333333333500 ) ;
#168 = DIRECTION ( 'NONE',  ( 1.000000000000000000, 0.0000000000000000000, 0.0000000000000000000 ) ) ;
#169 = AXIS2_PLACEMENT_3D ( 'NONE', #25, #84, #138 ) ;
#170 =( LENGTH_UNIT ( ) NAMED_UNIT ( * ) SI_UNIT ( .MILLI., .METRE. ) );
#171 = CARTESIAN_POINT ( 'NONE',  ( 0.0000000000000000000, 0.0000000000000000000, -47.95378201513364800 ) ) ;
#172 = CARTESIAN_POINT ( 'NONE',  ( 0.0000000000000000000, 0.0000000000000000000, -0.1587500000000019500 ) ) ;
#173 = EDGE_LOOP ( 'NONE', ( #64, #74, #192 ) ) ;
#174 = AXIS2_PLACEMENT_3D ( 'NONE', #43, #91, #125 ) ;
#175 = FACE_OUTER_BOUND ( 'NONE', #173, .T. ) ;
#176 = EDGE_CURVE ( 'NONE', #59, #89, #34, .T. ) ;
#177 = PRODUCT_DEFINITION_CONTEXT ( 'detailed design', #180, 'design' ) ;
#178 = ORIENTED_EDGE ( 'NONE', *, *, #28, .T. ) ;
#179 = VERTEX_POINT ( 'NONE', #5 ) ;
#180 = APPLICATION_CONTEXT ( 'automotive_design' ) ;
#181 = ORIENTED_EDGE ( 'NONE', *, *, #68, .T. ) ;
#182 = FACE_OUTER_BOUND ( 'NONE', #12, .T. ) ;
#183 = STYLED_ITEM ( 'NONE', ( #97 ), #155 ) ;
#184 = SURFACE_STYLE_USAGE ( .BOTH. , #66 ) ;
#185 = CARTESIAN_POINT ( 'NONE',  ( 0.0000000000000000000, 0.7937499999999999600, 4.860316984116057600E-017 ) ) ;
#186 = DIRECTION ( 'NONE',  ( 1.000000000000000000, 0.0000000000000000000, 0.0000000000000000000 ) ) ;
#187 = DIRECTION ( 'NONE',  ( -0.0000000000000000000, -0.0000000000000000000, 1.000000000000000000 ) ) ;
#188 = CLOSED_SHELL ( 'NONE', ( #208, #196, #151, #131, #65, #45, #113 ) ) ;
#189 = CIRCLE ( 'NONE', #33, 0.6350000000000035600 ) ;
#190 = PRODUCT_DEFINITION_FORMATION_WITH_SPECIFIED_SOURCE ( 'ANY', '', #56, .NOT_KNOWN. ) ;
#191 = UNCERTAINTY_MEASURE_WITH_UNIT (LENGTH_MEASURE( 1.000000000000000100E-005 ), #98, 'distance_accuracy_value', 'NONE');
#192 = ORIENTED_EDGE ( 'NONE', *, *, #27, .F. ) ;
#193 = CONICAL_SURFACE ( 'NONE', #88, 2414.213562373114700, 1.178097245096175300 ) ;
#194 =( NAMED_UNIT ( * ) PLANE_ANGLE_UNIT ( ) SI_UNIT ( $, .RADIAN. ) );
#195 = EDGE_LOOP ( 'NONE', ( #130, #47, #30, #16 ) ) ;
#196 = ADVANCED_FACE ( 'NONE', ( #44 ), #13, .T. ) ;
#197 = CARTESIAN_POINT ( 'NONE',  ( 0.0000000000000000000, 0.0000000000000000000, 952.0462179848663000 ) ) ;
#198 = CARTESIAN_POINT ( 'NONE',  ( -0.7937500000000028400, 9.720633968232150900E-017, -0.1587500000000019500 ) ) ;
#199 = CARTESIAN_POINT ( 'NONE',  ( 0.0000000000000000000, 0.0000000000000000000, 4.860316984116057600E-017 ) ) ;
#200 = DIRECTION ( 'NONE',  ( -0.0000000000000000000, -0.0000000000000000000, 1.000000000000000000 ) ) ;
#201 = DIRECTION ( 'NONE',  ( -0.0000000000000000000, -0.0000000000000000000, 1.000000000000000000 ) ) ;
#202 = ORIENTED_EDGE ( 'NONE', *, *, #68, .F. ) ;
#203 = EDGE_CURVE ( 'NONE', #89, #112, #10, .T. ) ;
#204 = EDGE_CURVE ( 'NONE', #89, #59, #189, .T. ) ;
#205 = ORIENTED_EDGE ( 'NONE', *, *, #71, .T. ) ;
#206 = LINE ( 'NONE', #55, #87 ) ;
#207 = APPLICATION_PROTOCOL_DEFINITION ( 'draft international standard', 'automotive_design', 1998, #128 ) ;
#208 = ADVANCED_FACE ( 'NONE', ( #20 ), #17, .T. ) ;
#209 = AXIS2_PLACEMENT_3D ( 'NONE', #122, #39, #158 ) ;
#210 = UNCERTAINTY_MEASURE_WITH_UNIT (LENGTH_MEASURE( 1.000000000000000100E-005 ), #170, 'distance_accuracy_value', 'NONE');
#211 = VERTEX_POINT ( 'NONE', #136 ) ;
#212 =( GEOMETRIC_REPRESENTATION_CONTEXT ( 3 ) GLOBAL_UNCERTAINTY_ASSIGNED_CONTEXT ( ( #210 ) ) GLOBAL_UNIT_ASSIGNED_CONTEXT ( ( #170, #194, #164 ) ) REPRESENTATION_CONTEXT ( 'NONE', 'WORKASPACE' ) );
#213 = VECTOR ( 'NONE', #129, 1000.000000000000000 ) ;
#214 =( NAMED_UNIT ( * ) PLANE_ANGLE_UNIT ( ) SI_UNIT ( $, .RADIAN. ) );
ENDSEC;
END-ISO-10303-21;
