ISO-10303-21;
HEADER;
FILE_DESCRIPTION (( 'STEP AP214' ),
    '1' );
FILE_NAME ('03-0342.STEP',
    '2020-07-23T06:58:04',
    ( '' ),
    ( '' ),
    'SwSTEP 2.0',
    'SolidWorks 2014',
    '' );
FILE_SCHEMA (( 'AUTOMOTIVE_DESIGN' ));
ENDSEC;

DATA;
#1 = DIRECTION ( 'NONE',  ( -0.0000000000000000000, -1.233114999460450200E-019, 1.000000000000000000 ) ) ;
#2 = AXIS2_PLACEMENT_3D ( 'NONE', #212, #44, #87 ) ;
#3 = CARTESIAN_POINT ( 'NONE',  ( 0.0000000000000000000, -1.190625000000003400, -1.468177546232602800E-019 ) ) ;
#4 = LINE ( 'NONE', #60, #61 ) ;
#5 = ORIENTED_EDGE ( 'NONE', *, *, #198, .T. ) ;
#6 = EDGE_LOOP ( 'NONE', ( #129, #54, #211, #53 ) ) ;
#7 =( GEOMETRIC_REPRESENTATION_CONTEXT ( 3 ) GLOBAL_UNCERTAINTY_ASSIGNED_CONTEXT ( ( #103 ) ) GLOBAL_UNIT_ASSIGNED_CONTEXT ( ( #89, #171, #85 ) ) REPRESENTATION_CONTEXT ( 'NONE', 'WORKASPACE' ) );
#8 = ORIENTED_EDGE ( 'NONE', *, *, #198, .F. ) ;
#9 = AXIS2_PLACEMENT_3D ( 'NONE', #189, #1, #84 ) ;
#10 = EDGE_CURVE ( 'NONE', #99, #75, #143, .T. ) ;
#11 = DIRECTION ( 'NONE',  ( 0.0000000000000000000, 1.000000000000000000, 1.233114999460474000E-019 ) ) ;
#12 = DIRECTION ( 'NONE',  ( 0.0000000000000000000, 0.7071067811865511300, -0.7071067811865440200 ) ) ;
#13 = COLOUR_RGB ( '',0.7921568627450980000, 0.8196078431372548800, 0.9333333333333333500 ) ;
#14 = DIRECTION ( 'NONE',  ( -0.0000000000000000000, -1.233114999460450200E-019, 1.000000000000000000 ) ) ;
#15 = PRODUCT_DEFINITION ( 'UNKNOWN', '', #91, #137 ) ;
#16 = SURFACE_STYLE_FILL_AREA ( #24 ) ;
#17 = FACE_OUTER_BOUND ( 'NONE', #77, .T. ) ;
#18 =( GEOMETRIC_REPRESENTATION_CONTEXT ( 3 ) GLOBAL_UNCERTAINTY_ASSIGNED_CONTEXT ( ( #59 ) ) GLOBAL_UNIT_ASSIGNED_CONTEXT ( ( #29, #114, #183 ) ) REPRESENTATION_CONTEXT ( 'NONE', 'WORKASPACE' ) );
#19 = PRODUCT ( '03-0342', '03-0342', '', ( #100 ) ) ;
#20 = EDGE_LOOP ( 'NONE', ( #193, #90, #186 ) ) ;
#21 = CARTESIAN_POINT ( 'NONE',  ( 0.0000000000000000000, -8.980942504098176100E-036, 7.283134588442920600E-017 ) ) ;
#22 =( GEOMETRIC_REPRESENTATION_CONTEXT ( 3 ) GLOBAL_UNCERTAINTY_ASSIGNED_CONTEXT ( ( #162 ) ) GLOBAL_UNIT_ASSIGNED_CONTEXT ( ( #64, #150, #117 ) ) REPRESENTATION_CONTEXT ( 'NONE', 'WORKASPACE' ) );
#23 = CARTESIAN_POINT ( 'NONE',  ( 0.0000000000000000000, 7.047252221916473300E-018, -57.14999999999999900 ) ) ;
#24 = FILL_AREA_STYLE ('',( #188 ) ) ;
#25 = PRESENTATION_STYLE_ASSIGNMENT (( #151 ) ) ;
#26 = CARTESIAN_POINT ( 'NONE',  ( 0.0000000000000000000, 0.0000000000000000000, 0.0000000000000000000 ) ) ;
#27 = ORIENTED_EDGE ( 'NONE', *, *, #73, .F. ) ;
#28 = CARTESIAN_POINT ( 'NONE',  ( 1.312285585711334300E-016, -0.9524999999999950200, 7.271389168073059400E-017 ) ) ;
#29 =( LENGTH_UNIT ( ) NAMED_UNIT ( * ) SI_UNIT ( .MILLI., .METRE. ) );
#30 = CARTESIAN_POINT ( 'NONE',  ( 1.458095095234825900E-016, 1.190625000000006900, -57.14999999999999900 ) ) ;
#31 = AXIS2_PLACEMENT_3D ( 'NONE', #133, #154, #104 ) ;
#32 = DIRECTION ( 'NONE',  ( 0.0000000000000000000, 1.000000000000000000, 0.0000000000000000000 ) ) ;
#33 = VERTEX_POINT ( 'NONE', #82 ) ;
#34 = CONICAL_SURFACE ( 'NONE', #57, 2414.213562373076900, 1.178097245096169800 ) ;
#35 = ORIENTED_EDGE ( 'NONE', *, *, #139, .T. ) ;
#36 = EDGE_CURVE ( 'NONE', #33, #161, #194, .T. ) ;
#37 = ORIENTED_EDGE ( 'NONE', *, *, #86, .T. ) ;
#38 = ADVANCED_FACE ( 'NONE', ( #17 ), #179, .T. ) ;
#39 = ORIENTED_EDGE ( 'NONE', *, *, #70, .F. ) ;
#40 = ADVANCED_FACE ( 'NONE', ( #135 ), #97, .T. ) ;
#41 = MECHANICAL_DESIGN_GEOMETRIC_PRESENTATION_REPRESENTATION (  '', ( #113 ), #22 ) ;
#42 = VERTEX_POINT ( 'NONE', #98 ) ;
#43 = DIRECTION ( 'NONE',  ( 0.0000000000000000000, 1.000000000000000000, 1.233114999460474000E-019 ) ) ;
#44 = DIRECTION ( 'NONE',  ( -0.0000000000000000000, -1.233114999460450200E-019, 1.000000000000000000 ) ) ;
#45 = VECTOR ( 'NONE', #81, 1000.000000000000100 ) ;
#46 = ORIENTED_EDGE ( 'NONE', *, *, #160, .F. ) ;
#47 = DIRECTION ( 'NONE',  ( 0.0000000000000000000, 1.000000000000000000, 1.233114999460450200E-019 ) ) ;
#48 = EDGE_CURVE ( 'NONE', #120, #161, #197, .T. ) ;
#49 = CARTESIAN_POINT ( 'NONE',  ( 0.0000000000000000000, 2.936355092465269000E-020, -0.2381250000000058300 ) ) ;
#50 = CARTESIAN_POINT ( 'NONE',  ( 0.0000000000000000000, -8.980942504098177400E-036, 7.283134588442920600E-017 ) ) ;
#51 = SURFACE_SIDE_STYLE ('',( #191 ) ) ;
#52 = PRESENTATION_STYLE_ASSIGNMENT (( #181 ) ) ;
#53 = ORIENTED_EDGE ( 'NONE', *, *, #142, .T. ) ;
#54 = ORIENTED_EDGE ( 'NONE', *, *, #10, .T. ) ;
#55 = ADVANCED_FACE ( 'NONE', ( #202 ), #78, .F. ) ;
#56 = VECTOR ( 'NONE', #12, 999.9999999999998900 ) ;
#57 = AXIS2_PLACEMENT_3D ( 'NONE', #131, #14, #134 ) ;
#58 = LINE ( 'NONE', #185, #45 ) ;
#59 = UNCERTAINTY_MEASURE_WITH_UNIT (LENGTH_MEASURE( 1.000000000000000100E-005 ), #29, 'distance_accuracy_value', 'NONE');
#60 = CARTESIAN_POINT ( 'NONE',  ( 0.0000000000000000000, 7.108066127078593500E-018, -57.64317302270047300 ) ) ;
#61 = VECTOR ( 'NONE', #180, 1000.000000000000100 ) ;
#62 = DIRECTION ( 'NONE',  ( 0.0000000000000000000, 1.233114999460450200E-019, -1.000000000000000000 ) ) ;
#63 = CARTESIAN_POINT ( 'NONE',  ( 0.0000000000000000000, 1.190624999999999600, 7.297816363905246000E-017 ) ) ;
#64 =( LENGTH_UNIT ( ) NAMED_UNIT ( * ) SI_UNIT ( .MILLI., .METRE. ) );
#65 = DIRECTION ( 'NONE',  ( 0.0000000000000000000, -1.000000000000000000, -1.233114999460450200E-019 ) ) ;
#66 = FILL_AREA_STYLE_COLOUR ( '', #184 ) ;
#67 = AXIS2_PLACEMENT_3D ( 'NONE', #21, #146, #43 ) ;
#68 = ADVANCED_BREP_SHAPE_REPRESENTATION ( '03-0342', ( #176, #72 ), #18 ) ;
#69 = EDGE_LOOP ( 'NONE', ( #192, #5 ) ) ;
#70 = EDGE_CURVE ( 'NONE', #83, #120, #110, .T. ) ;
#71 = CIRCLE ( 'NONE', #2, 0.9524999999999950200 ) ;
#72 = AXIS2_PLACEMENT_3D ( 'NONE', #148, #165, #167 ) ;
#73 = EDGE_CURVE ( 'NONE', #42, #99, #58, .T. ) ;
#74 = FACE_OUTER_BOUND ( 'NONE', #6, .T. ) ;
#75 = VERTEX_POINT ( 'NONE', #213 ) ;
#76 = AXIS2_PLACEMENT_3D ( 'NONE', #49, #174, #32 ) ;
#77 = EDGE_LOOP ( 'NONE', ( #170, #39, #152, #208 ) ) ;
#78 = PLANE ( 'NONE',  #108 ) ;
#79 = CARTESIAN_POINT ( 'NONE',  ( 0.0000000000000000000, -8.980942504098177400E-036, 7.283134588442920600E-017 ) ) ;
#80 = APPLICATION_PROTOCOL_DEFINITION ( 'draft international standard', 'automotive_design', 1998, #187 ) ;
#81 = DIRECTION ( 'NONE',  ( 1.131426112287699000E-016, 0.9238795325112856300, 0.3826834323650922800 ) ) ;
#82 = CARTESIAN_POINT ( 'NONE',  ( 1.458095095234821500E-016, 1.190625000000003400, -0.2381250000000058300 ) ) ;
#83 = VERTEX_POINT ( 'NONE', #201 ) ;
#84 = DIRECTION ( 'NONE',  ( 0.0000000000000000000, -1.000000000000000000, -1.233114999460450200E-019 ) ) ;
#85 =( NAMED_UNIT ( * ) SI_UNIT ( $, .STERADIAN. ) SOLID_ANGLE_UNIT ( ) );
#86 = EDGE_CURVE ( 'NONE', #42, #75, #4, .T. ) ;
#87 = DIRECTION ( 'NONE',  ( 0.0000000000000000000, 1.000000000000000000, 1.233114999460474000E-019 ) ) ;
#88 = DIRECTION ( 'NONE',  ( -0.0000000000000000000, -1.233114999460450200E-019, 1.000000000000000000 ) ) ;
#89 =( LENGTH_UNIT ( ) NAMED_UNIT ( * ) SI_UNIT ( .MILLI., .METRE. ) );
#90 = ORIENTED_EDGE ( 'NONE', *, *, #73, .T. ) ;
#91 = PRODUCT_DEFINITION_FORMATION_WITH_SPECIFIED_SOURCE ( 'ANY', '', #19, .NOT_KNOWN. ) ;
#92 = EDGE_CURVE ( 'NONE', #75, #161, #93, .T. ) ;
#93 = LINE ( 'NONE', #3, #169 ) ;
#94 = EDGE_LOOP ( 'NONE', ( #27, #37, #138 ) ) ;
#95 = ADVANCED_FACE ( 'NONE', ( #119 ), #34, .T. ) ;
#96 = VECTOR ( 'NONE', #166, 999.9999999999998900 ) ;
#97 = CONICAL_SURFACE ( 'NONE', #156, 2414.213562373076900, 1.178097245096169800 ) ;
#98 = CARTESIAN_POINT ( 'NONE',  ( 0.0000000000000000000, 7.108066127078593500E-018, -57.64317302270047300 ) ) ;
#99 = VERTEX_POINT ( 'NONE', #30 ) ;
#100 = PRODUCT_CONTEXT ( 'NONE', #127, 'mechanical' ) ;
#101 = AXIS2_PLACEMENT_3D ( 'NONE', #168, #200, #182 ) ;
#102 = CARTESIAN_POINT ( 'NONE',  ( 0.0000000000000000000, -1.162034338189664300E-016, 942.3568269772995300 ) ) ;
#103 = UNCERTAINTY_MEASURE_WITH_UNIT (LENGTH_MEASURE( 1.000000000000000100E-005 ), #89, 'distance_accuracy_value', 'NONE');
#104 = DIRECTION ( 'NONE',  ( 0.0000000000000000000, -1.000000000000000000, 0.0000000000000000000 ) ) ;
#105 = CARTESIAN_POINT ( 'NONE',  ( 0.0000000000000000000, 0.9524999999999950200, 7.294880008812780700E-017 ) ) ;
#106 = EDGE_CURVE ( 'NONE', #99, #33, #109, .T. ) ;
#107 = CIRCLE ( 'NONE', #31, 1.190625000000006700 ) ;
#108 = AXIS2_PLACEMENT_3D ( 'NONE', #63, #62, #47 ) ;
#109 = LINE ( 'NONE', #204, #177 ) ;
#110 = CIRCLE ( 'NONE', #67, 0.9524999999999950200 ) ;
#111 = STYLED_ITEM ( 'NONE', ( #25 ), #176 ) ;
#112 = FACE_OUTER_BOUND ( 'NONE', #122, .T. ) ;
#113 = STYLED_ITEM ( 'NONE', ( #52 ), #68 ) ;
#114 =( NAMED_UNIT ( * ) PLANE_ANGLE_UNIT ( ) SI_UNIT ( $, .RADIAN. ) );
#115 = DIRECTION ( 'NONE',  ( -0.0000000000000000000, -1.233114999460450200E-019, 1.000000000000000000 ) ) ;
#116 = EDGE_LOOP ( 'NONE', ( #35, #158, #209, #124 ) ) ;
#117 =( NAMED_UNIT ( * ) SI_UNIT ( $, .STERADIAN. ) SOLID_ANGLE_UNIT ( ) );
#118 = FILL_AREA_STYLE ('',( #66 ) ) ;
#119 = FACE_OUTER_BOUND ( 'NONE', #94, .T. ) ;
#120 = VERTEX_POINT ( 'NONE', #28 ) ;
#121 = MECHANICAL_DESIGN_GEOMETRIC_PRESENTATION_REPRESENTATION (  '', ( #111 ), #7 ) ;
#122 = EDGE_LOOP ( 'NONE', ( #8, #178, #141, #46 ) ) ;
#123 = ADVANCED_FACE ( 'NONE', ( #74 ), #155, .T. ) ;
#124 = ORIENTED_EDGE ( 'NONE', *, *, #92, .F. ) ;
#125 = CARTESIAN_POINT ( 'NONE',  ( 1.166476076187847700E-016, -0.9524999999999950200, 7.271389168073059400E-017 ) ) ;
#126 = AXIS2_PLACEMENT_3D ( 'NONE', #23, #147, #144 ) ;
#127 = APPLICATION_CONTEXT ( 'automotive_design' ) ;
#128 = DIRECTION ( 'NONE',  ( 0.0000000000000000000, -1.000000000000000000, 0.0000000000000000000 ) ) ;
#129 = ORIENTED_EDGE ( 'NONE', *, *, #106, .F. ) ;
#130 = AXIS2_PLACEMENT_3D ( 'NONE', #26, #214, #65 ) ;
#131 = CARTESIAN_POINT ( 'NONE',  ( 0.0000000000000000000, -1.162034338189664300E-016, 942.3568269772995300 ) ) ;
#132 = APPLICATION_PROTOCOL_DEFINITION ( 'draft international standard', 'automotive_design', 1998, #127 ) ;
#133 = CARTESIAN_POINT ( 'NONE',  ( 0.0000000000000000000, 7.047252221916473300E-018, -57.14999999999999900 ) ) ;
#134 = DIRECTION ( 'NONE',  ( 0.0000000000000000000, -1.000000000000000000, 0.0000000000000000000 ) ) ;
#135 = FACE_OUTER_BOUND ( 'NONE', #20, .T. ) ;
#136 = DIRECTION ( 'NONE',  ( -0.0000000000000000000, -1.233114999460450200E-019, 1.000000000000000000 ) ) ;
#137 = PRODUCT_DEFINITION_CONTEXT ( 'detailed design', #187, 'design' ) ;
#138 = ORIENTED_EDGE ( 'NONE', *, *, #10, .F. ) ;
#139 = EDGE_CURVE ( 'NONE', #75, #99, #107, .T. ) ;
#140 = FACE_OUTER_BOUND ( 'NONE', #116, .T. ) ;
#141 = ORIENTED_EDGE ( 'NONE', *, *, #36, .F. ) ;
#142 = EDGE_CURVE ( 'NONE', #161, #33, #207, .T. ) ;
#143 = CIRCLE ( 'NONE', #126, 1.190625000000006700 ) ;
#144 = DIRECTION ( 'NONE',  ( 0.0000000000000000000, -1.000000000000000000, 0.0000000000000000000 ) ) ;
#145 = PRESENTATION_LAYER_ASSIGNMENT (  '', '', ( #113 ) ) ;
#146 = DIRECTION ( 'NONE',  ( -0.0000000000000000000, -1.233114999460450200E-019, 1.000000000000000000 ) ) ;
#147 = DIRECTION ( 'NONE',  ( -0.0000000000000000000, -1.233114999460450200E-019, 1.000000000000000000 ) ) ;
#148 = CARTESIAN_POINT ( 'NONE',  ( 0.0000000000000000000, 0.0000000000000000000, 0.0000000000000000000 ) ) ;
#149 = DIRECTION ( 'NONE',  ( 0.0000000000000000000, 1.000000000000000000, 1.233114999460474000E-019 ) ) ;
#150 =( NAMED_UNIT ( * ) PLANE_ANGLE_UNIT ( ) SI_UNIT ( $, .RADIAN. ) );
#151 = SURFACE_STYLE_USAGE ( .BOTH. , #51 ) ;
#152 = ORIENTED_EDGE ( 'NONE', *, *, #160, .T. ) ;
#153 = AXIS2_PLACEMENT_3D ( 'NONE', #79, #164, #149 ) ;
#154 = DIRECTION ( 'NONE',  ( -0.0000000000000000000, -1.233114999460450200E-019, 1.000000000000000000 ) ) ;
#155 = CYLINDRICAL_SURFACE ( 'NONE', #130, 1.190625000000003400 ) ;
#156 = AXIS2_PLACEMENT_3D ( 'NONE', #102, #115, #128 ) ;
#157 = CYLINDRICAL_SURFACE ( 'NONE', #9, 1.190625000000003400 ) ;
#158 = ORIENTED_EDGE ( 'NONE', *, *, #106, .T. ) ;
#159 = PRODUCT_RELATED_PRODUCT_CATEGORY ( 'part', '', ( #19 ) ) ;
#160 = EDGE_CURVE ( 'NONE', #83, #33, #199, .T. ) ;
#161 = VERTEX_POINT ( 'NONE', #203 ) ;
#162 = UNCERTAINTY_MEASURE_WITH_UNIT (LENGTH_MEASURE( 1.000000000000000100E-005 ), #64, 'distance_accuracy_value', 'NONE');
#163 = SHAPE_DEFINITION_REPRESENTATION ( #172, #68 ) ;
#164 = DIRECTION ( 'NONE',  ( 0.0000000000000000000, 1.233114999460450400E-019, -1.000000000000000000 ) ) ;
#165 = DIRECTION ( 'NONE',  ( 0.0000000000000000000, 0.0000000000000000000, 1.000000000000000000 ) ) ;
#166 = DIRECTION ( 'NONE',  ( 8.659560562354977200E-017, -0.7071067811865511300, -0.7071067811865440200 ) ) ;
#167 = DIRECTION ( 'NONE',  ( 1.000000000000000000, 0.0000000000000000000, 0.0000000000000000000 ) ) ;
#168 = CARTESIAN_POINT ( 'NONE',  ( 0.0000000000000000000, 2.936355092465269000E-020, -0.2381250000000058300 ) ) ;
#169 = VECTOR ( 'NONE', #88, 1000.000000000000000 ) ;
#170 = ORIENTED_EDGE ( 'NONE', *, *, #48, .F. ) ;
#171 =( NAMED_UNIT ( * ) PLANE_ANGLE_UNIT ( ) SI_UNIT ( $, .RADIAN. ) );
#172 = PRODUCT_DEFINITION_SHAPE ( 'NONE', 'NONE',  #15 ) ;
#173 = SURFACE_SIDE_STYLE ('',( #16 ) ) ;
#174 = DIRECTION ( 'NONE',  ( 0.0000000000000000000, 1.233114999460450400E-019, -1.000000000000000000 ) ) ;
#175 = CONICAL_SURFACE ( 'NONE', #206, 0.9524999999999950200, 0.7853981633974533900 ) ;
#176 = MANIFOLD_SOLID_BREP ( '¸ðµû±â1', #205 ) ;
#177 = VECTOR ( 'NONE', #136, 1000.000000000000000 ) ;
#178 = ORIENTED_EDGE ( 'NONE', *, *, #48, .T. ) ;
#179 = CONICAL_SURFACE ( 'NONE', #153, 0.9524999999999950200, 0.7853981633974533900 ) ;
#180 = DIRECTION ( 'NONE',  ( 0.0000000000000000000, -0.9238795325112856300, 0.3826834323650922800 ) ) ;
#181 = SURFACE_STYLE_USAGE ( .BOTH. , #173 ) ;
#182 = DIRECTION ( 'NONE',  ( 0.0000000000000000000, 1.000000000000000000, 0.0000000000000000000 ) ) ;
#183 =( NAMED_UNIT ( * ) SI_UNIT ( $, .STERADIAN. ) SOLID_ANGLE_UNIT ( ) );
#184 = COLOUR_RGB ( '',0.7921568627450980000, 0.8196078431372548800, 0.9333333333333333500 ) ;
#185 = CARTESIAN_POINT ( 'NONE',  ( 0.0000000000000000000, 7.108066127078593500E-018, -57.64317302270047300 ) ) ;
#186 = ORIENTED_EDGE ( 'NONE', *, *, #139, .F. ) ;
#187 = APPLICATION_CONTEXT ( 'automotive_design' ) ;
#188 = FILL_AREA_STYLE_COLOUR ( '', #13 ) ;
#189 = CARTESIAN_POINT ( 'NONE',  ( 0.0000000000000000000, 0.0000000000000000000, 0.0000000000000000000 ) ) ;
#190 = PRESENTATION_LAYER_ASSIGNMENT (  '', '', ( #111 ) ) ;
#191 = SURFACE_STYLE_FILL_AREA ( #118 ) ;
#192 = ORIENTED_EDGE ( 'NONE', *, *, #70, .T. ) ;
#193 = ORIENTED_EDGE ( 'NONE', *, *, #86, .F. ) ;
#194 = CIRCLE ( 'NONE', #101, 1.190625000000003400 ) ;
#195 = ADVANCED_FACE ( 'NONE', ( #140 ), #157, .T. ) ;
#196 = ADVANCED_FACE ( 'NONE', ( #112 ), #175, .T. ) ;
#197 = LINE ( 'NONE', #125, #96 ) ;
#198 = EDGE_CURVE ( 'NONE', #120, #83, #71, .T. ) ;
#199 = LINE ( 'NONE', #105, #56 ) ;
#200 = DIRECTION ( 'NONE',  ( 0.0000000000000000000, 1.233114999460450400E-019, -1.000000000000000000 ) ) ;
#201 = CARTESIAN_POINT ( 'NONE',  ( 0.0000000000000000000, 0.9524999999999950200, 7.294880008812780700E-017 ) ) ;
#202 = FACE_OUTER_BOUND ( 'NONE', #69, .T. ) ;
#203 = CARTESIAN_POINT ( 'NONE',  ( 0.0000000000000000000, -1.190625000000003400, -0.2381250000000058300 ) ) ;
#204 = CARTESIAN_POINT ( 'NONE',  ( 1.458095095234821500E-016, 1.190625000000003400, 1.468177546232602800E-019 ) ) ;
#205 = CLOSED_SHELL ( 'NONE', ( #196, #195, #40, #55, #95, #123, #38 ) ) ;
#206 = AXIS2_PLACEMENT_3D ( 'NONE', #50, #210, #11 ) ;
#207 = CIRCLE ( 'NONE', #76, 1.190625000000003400 ) ;
#208 = ORIENTED_EDGE ( 'NONE', *, *, #142, .F. ) ;
#209 = ORIENTED_EDGE ( 'NONE', *, *, #36, .T. ) ;
#210 = DIRECTION ( 'NONE',  ( 0.0000000000000000000, 1.233114999460450400E-019, -1.000000000000000000 ) ) ;
#211 = ORIENTED_EDGE ( 'NONE', *, *, #92, .T. ) ;
#212 = CARTESIAN_POINT ( 'NONE',  ( 0.0000000000000000000, -8.980942504098176100E-036, 7.283134588442920600E-017 ) ) ;
#213 = CARTESIAN_POINT ( 'NONE',  ( 0.0000000000000000000, -1.190625000000006900, -57.14999999999999900 ) ) ;
#214 = DIRECTION ( 'NONE',  ( -0.0000000000000000000, -1.233114999460450200E-019, 1.000000000000000000 ) ) ;
ENDSEC;
END-ISO-10303-21;
