ISO-10303-21;
HEADER;
FILE_DESCRIPTION (( 'STEP AP214' ),
    '1' );
FILE_NAME ('03-0343.STEP',
    '2020-07-23T06:58:45',
    ( '' ),
    ( '' ),
    'SwSTEP 2.0',
    'SolidWorks 2014',
    '' );
FILE_SCHEMA (( 'AUTOMOTIVE_DESIGN' ));
ENDSEC;

DATA;
#1 = LINE ( 'NONE', #207, #43 ) ;
#2 = CARTESIAN_POINT ( 'NONE',  ( 1.701110944440625200E-016, 1.389062500000004100, -4.102608638571294400E-020 ) ) ;
#3 = PRODUCT_CONTEXT ( 'NONE', #172, 'mechanical' ) ;
#4 = EDGE_LOOP ( 'NONE', ( #154, #109, #146, #182 ) ) ;
#5 = DIRECTION ( 'NONE',  ( -0.0000000000000000000, 2.953509031142430500E-020, 1.000000000000000000 ) ) ;
#6 = MECHANICAL_DESIGN_GEOMETRIC_PRESENTATION_REPRESENTATION (  '', ( #71 ), #97 ) ;
#7 = FILL_AREA_STYLE ('',( #174 ) ) ;
#8 = ORIENTED_EDGE ( 'NONE', *, *, #85, .T. ) ;
#9 = SURFACE_SIDE_STYLE ('',( #202 ) ) ;
#10 = EDGE_LOOP ( 'NONE', ( #181, #200, #141, #17 ) ) ;
#11 = PRODUCT_DEFINITION ( 'UNKNOWN', '', #106, #163 ) ;
#12 = CARTESIAN_POINT ( 'NONE',  ( 0.0000000000000000000, 2.512729123273563600E-036, 8.507606026522385000E-017 ) ) ;
#13 = ORIENTED_EDGE ( 'NONE', *, *, #95, .F. ) ;
#14 = LINE ( 'NONE', #2, #47 ) ;
#15 = PRODUCT_RELATED_PRODUCT_CATEGORY ( 'part', '', ( #23 ) ) ;
#16 = EDGE_CURVE ( 'NONE', #135, #63, #14, .T. ) ;
#17 = ORIENTED_EDGE ( 'NONE', *, *, #145, .F. ) ;
#18 = CARTESIAN_POINT ( 'NONE',  ( 1.701110944440629900E-016, 1.389062500000007600, -66.67499999999999700 ) ) ;
#19 = DIRECTION ( 'NONE',  ( 0.0000000000000000000, 1.000000000000000000, 0.0000000000000000000 ) ) ;
#20 = FACE_OUTER_BOUND ( 'NONE', #176, .T. ) ;
#21 = DIRECTION ( 'NONE',  ( -0.0000000000000000000, 2.953509031142430500E-020, 1.000000000000000000 ) ) ;
#22 = CARTESIAN_POINT ( 'NONE',  ( 1.701110944440625200E-016, 1.389062500000004100, -0.2778125000000138400 ) ) ;
#23 = PRODUCT ( '03-0343', '03-0343', '', ( #3 ) ) ;
#24 = DIRECTION ( 'NONE',  ( -0.0000000000000000000, 2.953509031142430500E-020, 1.000000000000000000 ) ) ;
#25 = APPLICATION_CONTEXT ( 'automotive_design' ) ;
#26 = EDGE_LOOP ( 'NONE', ( #94, #136, #101 ) ) ;
#27 = CIRCLE ( 'NONE', #77, 1.389062500000008100 ) ;
#28 =( NAMED_UNIT ( * ) SI_UNIT ( $, .STERADIAN. ) SOLID_ANGLE_UNIT ( ) );
#29 = CARTESIAN_POINT ( 'NONE',  ( 0.0000000000000000000, -1.986245707906268000E-018, -67.25036852648388200 ) ) ;
#30 = EDGE_CURVE ( 'NONE', #119, #135, #214, .T. ) ;
#31 = VERTEX_POINT ( 'NONE', #55 ) ;
#32 = EDGE_CURVE ( 'NONE', #68, #56, #175, .T. ) ;
#33 = FACE_OUTER_BOUND ( 'NONE', #144, .T. ) ;
#34 = VECTOR ( 'NONE', #84, 1000.000000000000000 ) ;
#35 =( LENGTH_UNIT ( ) NAMED_UNIT ( * ) SI_UNIT ( .MILLI., .METRE. ) );
#36 = ADVANCED_FACE ( 'NONE', ( #91 ), #129, .T. ) ;
#37 = CARTESIAN_POINT ( 'NONE',  ( 0.0000000000000000000, -1.986245707906268000E-018, -67.25036852648388200 ) ) ;
#38 = APPLICATION_PROTOCOL_DEFINITION ( 'draft international standard', 'automotive_design', 1998, #172 ) ;
#39 = DIRECTION ( 'NONE',  ( -0.0000000000000000000, 2.953509031142430500E-020, 1.000000000000000000 ) ) ;
#40 = FACE_OUTER_BOUND ( 'NONE', #26, .T. ) ;
#41 =( NAMED_UNIT ( * ) PLANE_ANGLE_UNIT ( ) SI_UNIT ( $, .RADIAN. ) );
#42 = AXIS2_PLACEMENT_3D ( 'NONE', #185, #122, #19 ) ;
#43 = VECTOR ( 'NONE', #24, 1000.000000000000000 ) ;
#44 = UNCERTAINTY_MEASURE_WITH_UNIT (LENGTH_MEASURE( 1.000000000000000100E-005 ), #35, 'distance_accuracy_value', 'NONE');
#45 = AXIS2_PLACEMENT_3D ( 'NONE', #76, #21, #189 ) ;
#46 = ADVANCED_FACE ( 'NONE', ( #164 ), #134, .T. ) ;
#47 = VECTOR ( 'NONE', #39, 1000.000000000000000 ) ;
#48 = ORIENTED_EDGE ( 'NONE', *, *, #145, .T. ) ;
#49 = PRODUCT_DEFINITION_SHAPE ( 'NONE', 'NONE',  #11 ) ;
#50 = AXIS2_PLACEMENT_3D ( 'NONE', #90, #151, #96 ) ;
#51 = AXIS2_PLACEMENT_3D ( 'NONE', #170, #102, #121 ) ;
#52 = CARTESIAN_POINT ( 'NONE',  ( 1.360888755552488800E-016, -1.111249999999994100, 8.510888113433242700E-017 ) ) ;
#53 = DIRECTION ( 'NONE',  ( 0.0000000000000000000, -0.9238795325112876300, 0.3826834323650877800 ) ) ;
#54 = DIRECTION ( 'NONE',  ( 1.000000000000000000, 0.0000000000000000000, 0.0000000000000000000 ) ) ;
#55 = CARTESIAN_POINT ( 'NONE',  ( 0.0000000000000000000, -1.389062500000004100, -0.2778125000000138400 ) ) ;
#56 = VERTEX_POINT ( 'NONE', #180 ) ;
#57 = DIRECTION ( 'NONE',  ( -0.0000000000000000000, 2.953509031142430500E-020, 1.000000000000000000 ) ) ;
#58 = CONICAL_SURFACE ( 'NONE', #59, 2414.213562373110100, 1.178097245096174600 ) ;
#59 = AXIS2_PLACEMENT_3D ( 'NONE', #168, #74, #184 ) ;
#60 = CARTESIAN_POINT ( 'NONE',  ( 1.530999849996557000E-016, -1.111249999999994100, 8.510888113433242700E-017 ) ) ;
#61 = FILL_AREA_STYLE_COLOUR ( '', #120 ) ;
#62 =( LENGTH_UNIT ( ) NAMED_UNIT ( * ) SI_UNIT ( .MILLI., .METRE. ) );
#63 = VERTEX_POINT ( 'NONE', #22 ) ;
#64 = DIRECTION ( 'NONE',  ( 0.0000000000000000000, -1.000000000000000000, 2.953509031142430500E-020 ) ) ;
#65 = PLANE ( 'NONE',  #179 ) ;
#66 = AXIS2_PLACEMENT_3D ( 'NONE', #169, #5, #108 ) ;
#67 = DIRECTION ( 'NONE',  ( 0.0000000000000000000, 1.000000000000000000, -2.953509031142452800E-020 ) ) ;
#68 = VERTEX_POINT ( 'NONE', #60 ) ;
#69 = EDGE_CURVE ( 'NONE', #63, #31, #87, .T. ) ;
#70 = FACE_OUTER_BOUND ( 'NONE', #4, .T. ) ;
#71 = STYLED_ITEM ( 'NONE', ( #118 ), #206 ) ;
#72 = VERTEX_POINT ( 'NONE', #132 ) ;
#73 = LINE ( 'NONE', #29, #34 ) ;
#74 = DIRECTION ( 'NONE',  ( -0.0000000000000000000, 2.953509031142430500E-020, 1.000000000000000000 ) ) ;
#75 = CARTESIAN_POINT ( 'NONE',  ( 0.0000000000000000000, -1.969252146514215300E-018, -66.67499999999999700 ) ) ;
#76 = CARTESIAN_POINT ( 'NONE',  ( 0.0000000000000000000, -1.969252146514215300E-018, -66.67499999999999700 ) ) ;
#77 = AXIS2_PLACEMENT_3D ( 'NONE', #75, #199, #178 ) ;
#78 = PRESENTATION_STYLE_ASSIGNMENT (( #209 ) ) ;
#79 = ORIENTED_EDGE ( 'NONE', *, *, #100, .T. ) ;
#80 = LINE ( 'NONE', #147, #112 ) ;
#81 = AXIS2_PLACEMENT_3D ( 'NONE', #93, #157, #142 ) ;
#82 =( NAMED_UNIT ( * ) PLANE_ANGLE_UNIT ( ) SI_UNIT ( $, .RADIAN. ) );
#83 = CARTESIAN_POINT ( 'NONE',  ( 0.0000000000000000000, 1.389062499999999600, 8.503503417883814100E-017 ) ) ;
#84 = DIRECTION ( 'NONE',  ( 1.131426112287701500E-016, 0.9238795325112876300, 0.3826834323650877800 ) ) ;
#85 = EDGE_CURVE ( 'NONE', #119, #31, #1, .T. ) ;
#86 = DIRECTION ( 'NONE',  ( 0.0000000000000000000, 1.000000000000000000, -2.953509031142452800E-020 ) ) ;
#87 = CIRCLE ( 'NONE', #42, 1.389062500000004100 ) ;
#88 = UNCERTAINTY_MEASURE_WITH_UNIT (LENGTH_MEASURE( 1.000000000000000100E-005 ), #62, 'distance_accuracy_value', 'NONE');
#89 =( GEOMETRIC_REPRESENTATION_CONTEXT ( 3 ) GLOBAL_UNCERTAINTY_ASSIGNED_CONTEXT ( ( #44 ) ) GLOBAL_UNIT_ASSIGNED_CONTEXT ( ( #35, #41, #186 ) ) REPRESENTATION_CONTEXT ( 'NONE', 'WORKASPACE' ) );
#90 = CARTESIAN_POINT ( 'NONE',  ( 0.0000000000000000000, 0.0000000000000000000, 0.0000000000000000000 ) ) ;
#91 = FACE_OUTER_BOUND ( 'NONE', #10, .T. ) ;
#92 = UNCERTAINTY_MEASURE_WITH_UNIT (LENGTH_MEASURE( 1.000000000000000100E-005 ), #173, 'distance_accuracy_value', 'NONE');
#93 = CARTESIAN_POINT ( 'NONE',  ( 0.0000000000000000000, 2.512729123273563600E-036, 8.507606026522385000E-017 ) ) ;
#94 = ORIENTED_EDGE ( 'NONE', *, *, #167, .F. ) ;
#95 = EDGE_CURVE ( 'NONE', #72, #119, #210, .T. ) ;
#96 = DIRECTION ( 'NONE',  ( 0.0000000000000000000, -1.000000000000000000, 2.953509031142430500E-020 ) ) ;
#97 =( GEOMETRIC_REPRESENTATION_CONTEXT ( 3 ) GLOBAL_UNCERTAINTY_ASSIGNED_CONTEXT ( ( #92 ) ) GLOBAL_UNIT_ASSIGNED_CONTEXT ( ( #173, #138, #194 ) ) REPRESENTATION_CONTEXT ( 'NONE', 'WORKASPACE' ) );
#98 = ORIENTED_EDGE ( 'NONE', *, *, #16, .F. ) ;
#99 = EDGE_LOOP ( 'NONE', ( #13, #116, #203 ) ) ;
#100 = EDGE_CURVE ( 'NONE', #56, #68, #127, .T. ) ;
#101 = ORIENTED_EDGE ( 'NONE', *, *, #165, .F. ) ;
#102 = DIRECTION ( 'NONE',  ( 0.0000000000000000000, -2.953509031142430500E-020, -1.000000000000000000 ) ) ;
#103 = ORIENTED_EDGE ( 'NONE', *, *, #137, .F. ) ;
#104 = CARTESIAN_POINT ( 'NONE',  ( 0.0000000000000000000, 0.0000000000000000000, 0.0000000000000000000 ) ) ;
#105 = DIRECTION ( 'NONE',  ( 0.0000000000000000000, 1.000000000000000000, -2.953509031142452800E-020 ) ) ;
#106 = PRODUCT_DEFINITION_FORMATION_WITH_SPECIFIED_SOURCE ( 'ANY', '', #23, .NOT_KNOWN. ) ;
#107 = ADVANCED_FACE ( 'NONE', ( #125 ), #195, .T. ) ;
#108 = DIRECTION ( 'NONE',  ( 0.0000000000000000000, -1.000000000000000000, 0.0000000000000000000 ) ) ;
#109 = ORIENTED_EDGE ( 'NONE', *, *, #16, .T. ) ;
#110 = FILL_AREA_STYLE ('',( #61 ) ) ;
#111 = MECHANICAL_DESIGN_GEOMETRIC_PRESENTATION_REPRESENTATION (  '', ( #131 ), #89 ) ;
#112 = VECTOR ( 'NONE', #133, 999.9999999999998900 ) ;
#113 = DIRECTION ( 'NONE',  ( 0.0000000000000000000, 1.000000000000000000, -2.953509031142430500E-020 ) ) ;
#114 = DIRECTION ( 'NONE',  ( -0.0000000000000000000, 2.953509031142430500E-020, 1.000000000000000000 ) ) ;
#115 = EDGE_CURVE ( 'NONE', #31, #63, #201, .T. ) ;
#116 = ORIENTED_EDGE ( 'NONE', *, *, #167, .T. ) ;
#117 = DIRECTION ( 'NONE',  ( 0.0000000000000000000, -2.953509031142430500E-020, -1.000000000000000000 ) ) ;
#118 = PRESENTATION_STYLE_ASSIGNMENT (( #156 ) ) ;
#119 = VERTEX_POINT ( 'NONE', #150 ) ;
#120 = COLOUR_RGB ( '',0.7921568627450980000, 0.8196078431372548800, 0.9333333333333333500 ) ;
#121 = DIRECTION ( 'NONE',  ( 0.0000000000000000000, 1.000000000000000000, 0.0000000000000000000 ) ) ;
#122 = DIRECTION ( 'NONE',  ( 0.0000000000000000000, -2.953509031142430500E-020, -1.000000000000000000 ) ) ;
#123 = DIRECTION ( 'NONE',  ( 8.659560562354873700E-017, -0.7071067811865425800, -0.7071067811865525700 ) ) ;
#124 = DIRECTION ( 'NONE',  ( 0.0000000000000000000, 0.0000000000000000000, 1.000000000000000000 ) ) ;
#125 = FACE_OUTER_BOUND ( 'NONE', #99, .T. ) ;
#126 = SURFACE_SIDE_STYLE ('',( #204 ) ) ;
#127 = CIRCLE ( 'NONE', #177, 1.111249999999994100 ) ;
#128 = DIRECTION ( 'NONE',  ( 0.0000000000000000000, -2.953509031142430500E-020, -1.000000000000000000 ) ) ;
#129 = CONICAL_SURFACE ( 'NONE', #149, 1.111249999999994100, 0.7853981633974412800 ) ;
#130 = ORIENTED_EDGE ( 'NONE', *, *, #115, .F. ) ;
#131 = STYLED_ITEM ( 'NONE', ( #78 ), #158 ) ;
#132 = CARTESIAN_POINT ( 'NONE',  ( 0.0000000000000000000, -1.986245707906268000E-018, -67.25036852648388200 ) ) ;
#133 = DIRECTION ( 'NONE',  ( 0.0000000000000000000, 0.7071067811865425800, -0.7071067811865525700 ) ) ;
#134 = CYLINDRICAL_SURFACE ( 'NONE', #50, 1.389062500000004100 ) ;
#135 = VERTEX_POINT ( 'NONE', #18 ) ;
#136 = ORIENTED_EDGE ( 'NONE', *, *, #95, .T. ) ;
#137 = EDGE_CURVE ( 'NONE', #68, #31, #148, .T. ) ;
#138 =( NAMED_UNIT ( * ) PLANE_ANGLE_UNIT ( ) SI_UNIT ( $, .RADIAN. ) );
#139 = SHAPE_DEFINITION_REPRESENTATION ( #49, #158 ) ;
#140 = AXIS2_PLACEMENT_3D ( 'NONE', #152, #57, #67 ) ;
#141 = ORIENTED_EDGE ( 'NONE', *, *, #69, .F. ) ;
#142 = DIRECTION ( 'NONE',  ( 0.0000000000000000000, 1.000000000000000000, -2.953509031142452800E-020 ) ) ;
#143 = AXIS2_PLACEMENT_3D ( 'NONE', #211, #114, #64 ) ;
#144 = EDGE_LOOP ( 'NONE', ( #103, #197, #48, #130 ) ) ;
#145 = EDGE_CURVE ( 'NONE', #56, #63, #80, .T. ) ;
#146 = ORIENTED_EDGE ( 'NONE', *, *, #69, .T. ) ;
#147 = CARTESIAN_POINT ( 'NONE',  ( 0.0000000000000000000, 1.111249999999994100, 8.504323939611528500E-017 ) ) ;
#148 = LINE ( 'NONE', #52, #162 ) ;
#149 = AXIS2_PLACEMENT_3D ( 'NONE', #213, #117, #86 ) ;
#150 = CARTESIAN_POINT ( 'NONE',  ( 0.0000000000000000000, -1.389062500000007600, -66.67499999999999700 ) ) ;
#151 = DIRECTION ( 'NONE',  ( -0.0000000000000000000, 2.953509031142430500E-020, 1.000000000000000000 ) ) ;
#152 = CARTESIAN_POINT ( 'NONE',  ( 0.0000000000000000000, 2.512729123273563600E-036, 8.507606026522385000E-017 ) ) ;
#153 = PRESENTATION_LAYER_ASSIGNMENT (  '', '', ( #131 ) ) ;
#154 = ORIENTED_EDGE ( 'NONE', *, *, #30, .T. ) ;
#155 = CONICAL_SURFACE ( 'NONE', #81, 1.111249999999994100, 0.7853981633974412800 ) ;
#156 = SURFACE_STYLE_USAGE ( .BOTH. , #126 ) ;
#157 = DIRECTION ( 'NONE',  ( 0.0000000000000000000, -2.953509031142430500E-020, -1.000000000000000000 ) ) ;
#158 = ADVANCED_BREP_SHAPE_REPRESENTATION ( '03-0343', ( #206, #191 ), #159 ) ;
#159 =( GEOMETRIC_REPRESENTATION_CONTEXT ( 3 ) GLOBAL_UNCERTAINTY_ASSIGNED_CONTEXT ( ( #88 ) ) GLOBAL_UNIT_ASSIGNED_CONTEXT ( ( #62, #82, #28 ) ) REPRESENTATION_CONTEXT ( 'NONE', 'WORKASPACE' ) );
#160 = CLOSED_SHELL ( 'NONE', ( #36, #183, #107, #187, #196, #46, #166 ) ) ;
#161 = DIRECTION ( 'NONE',  ( -0.0000000000000000000, 2.953509031142430500E-020, 1.000000000000000000 ) ) ;
#162 = VECTOR ( 'NONE', #123, 999.9999999999998900 ) ;
#163 = PRODUCT_DEFINITION_CONTEXT ( 'detailed design', #25, 'design' ) ;
#164 = FACE_OUTER_BOUND ( 'NONE', #198, .T. ) ;
#165 = EDGE_CURVE ( 'NONE', #135, #119, #27, .T. ) ;
#166 = ADVANCED_FACE ( 'NONE', ( #33 ), #155, .T. ) ;
#167 = EDGE_CURVE ( 'NONE', #72, #135, #73, .T. ) ;
#168 = CARTESIAN_POINT ( 'NONE',  ( 0.0000000000000000000, 2.754884460351803800E-017, 932.7496314735160500 ) ) ;
#169 = CARTESIAN_POINT ( 'NONE',  ( 0.0000000000000000000, 2.754884460351803800E-017, 932.7496314735160500 ) ) ;
#170 = CARTESIAN_POINT ( 'NONE',  ( 0.0000000000000000000, -8.205217277142974000E-021, -0.2778125000000138400 ) ) ;
#171 = VECTOR ( 'NONE', #53, 1000.000000000000000 ) ;
#172 = APPLICATION_CONTEXT ( 'automotive_design' ) ;
#173 =( LENGTH_UNIT ( ) NAMED_UNIT ( * ) SI_UNIT ( .MILLI., .METRE. ) );
#174 = FILL_AREA_STYLE_COLOUR ( '', #192 ) ;
#175 = CIRCLE ( 'NONE', #140, 1.111249999999994100 ) ;
#176 = EDGE_LOOP ( 'NONE', ( #79, #190 ) ) ;
#177 = AXIS2_PLACEMENT_3D ( 'NONE', #12, #161, #105 ) ;
#178 = DIRECTION ( 'NONE',  ( 0.0000000000000000000, -1.000000000000000000, 0.0000000000000000000 ) ) ;
#179 = AXIS2_PLACEMENT_3D ( 'NONE', #83, #128, #113 ) ;
#180 = CARTESIAN_POINT ( 'NONE',  ( 0.0000000000000000000, 1.111249999999994100, 8.504323939611528500E-017 ) ) ;
#181 = ORIENTED_EDGE ( 'NONE', *, *, #32, .F. ) ;
#182 = ORIENTED_EDGE ( 'NONE', *, *, #85, .F. ) ;
#183 = ADVANCED_FACE ( 'NONE', ( #70 ), #208, .T. ) ;
#184 = DIRECTION ( 'NONE',  ( 0.0000000000000000000, -1.000000000000000000, 0.0000000000000000000 ) ) ;
#185 = CARTESIAN_POINT ( 'NONE',  ( 0.0000000000000000000, -8.205217277142974000E-021, -0.2778125000000138400 ) ) ;
#186 =( NAMED_UNIT ( * ) SI_UNIT ( $, .STERADIAN. ) SOLID_ANGLE_UNIT ( ) );
#187 = ADVANCED_FACE ( 'NONE', ( #20 ), #65, .F. ) ;
#188 = ORIENTED_EDGE ( 'NONE', *, *, #165, .T. ) ;
#189 = DIRECTION ( 'NONE',  ( 0.0000000000000000000, -1.000000000000000000, 0.0000000000000000000 ) ) ;
#190 = ORIENTED_EDGE ( 'NONE', *, *, #32, .T. ) ;
#191 = AXIS2_PLACEMENT_3D ( 'NONE', #104, #124, #54 ) ;
#192 = COLOUR_RGB ( '',0.7921568627450980000, 0.8196078431372548800, 0.9333333333333333500 ) ;
#193 = ORIENTED_EDGE ( 'NONE', *, *, #115, .T. ) ;
#194 =( NAMED_UNIT ( * ) SI_UNIT ( $, .STERADIAN. ) SOLID_ANGLE_UNIT ( ) );
#195 = CONICAL_SURFACE ( 'NONE', #66, 2414.213562373110100, 1.178097245096174600 ) ;
#196 = ADVANCED_FACE ( 'NONE', ( #40 ), #58, .T. ) ;
#197 = ORIENTED_EDGE ( 'NONE', *, *, #100, .F. ) ;
#198 = EDGE_LOOP ( 'NONE', ( #98, #188, #8, #193 ) ) ;
#199 = DIRECTION ( 'NONE',  ( -0.0000000000000000000, 2.953509031142430500E-020, 1.000000000000000000 ) ) ;
#200 = ORIENTED_EDGE ( 'NONE', *, *, #137, .T. ) ;
#201 = CIRCLE ( 'NONE', #51, 1.389062500000004100 ) ;
#202 = SURFACE_STYLE_FILL_AREA ( #7 ) ;
#203 = ORIENTED_EDGE ( 'NONE', *, *, #30, .F. ) ;
#204 = SURFACE_STYLE_FILL_AREA ( #110 ) ;
#205 = APPLICATION_PROTOCOL_DEFINITION ( 'draft international standard', 'automotive_design', 1998, #25 ) ;
#206 = MANIFOLD_SOLID_BREP ( '¸ðµû±â1', #160 ) ;
#207 = CARTESIAN_POINT ( 'NONE',  ( 0.0000000000000000000, -1.389062500000004100, 4.102608638571294400E-020 ) ) ;
#208 = CYLINDRICAL_SURFACE ( 'NONE', #143, 1.389062500000004100 ) ;
#209 = SURFACE_STYLE_USAGE ( .BOTH. , #9 ) ;
#210 = LINE ( 'NONE', #37, #171 ) ;
#211 = CARTESIAN_POINT ( 'NONE',  ( 0.0000000000000000000, 0.0000000000000000000, 0.0000000000000000000 ) ) ;
#212 = PRESENTATION_LAYER_ASSIGNMENT (  '', '', ( #71 ) ) ;
#213 = CARTESIAN_POINT ( 'NONE',  ( 0.0000000000000000000, 2.512729123273563600E-036, 8.507606026522385000E-017 ) ) ;
#214 = CIRCLE ( 'NONE', #45, 1.389062500000008100 ) ;
ENDSEC;
END-ISO-10303-21;
