ISO-10303-21;
HEADER;
FILE_DESCRIPTION (( 'STEP AP214' ),
    '1' );
FILE_NAME ('03-0344.STEP',
    '2020-07-23T06:59:26',
    ( '' ),
    ( '' ),
    'SwSTEP 2.0',
    'SolidWorks 2014',
    '' );
FILE_SCHEMA (( 'AUTOMOTIVE_DESIGN' ));
ENDSEC;

DATA;
#1 = CIRCLE ( 'NONE', #186, 1.587500000000004400 ) ;
#2 =( NAMED_UNIT ( * ) PLANE_ANGLE_UNIT ( ) SI_UNIT ( $, .RADIAN. ) );
#3 = VERTEX_POINT ( 'NONE', #95 ) ;
#4 = DIRECTION ( 'NONE',  ( 0.0000000000000000000, 1.000000000000000000, -5.691028748996496700E-020 ) ) ;
#5 = DIRECTION ( 'NONE',  ( 1.131426112287697500E-016, 0.9238795325112846300, 0.3826834323650947200 ) ) ;
#6 = APPLICATION_CONTEXT ( 'automotive_design' ) ;
#7 = ORIENTED_EDGE ( 'NONE', *, *, #149, .T. ) ;
#8 = DIRECTION ( 'NONE',  ( 0.0000000000000000000, 1.000000000000000000, -5.691028748996496700E-020 ) ) ;
#9 = ORIENTED_EDGE ( 'NONE', *, *, #196, .F. ) ;
#10 = UNCERTAINTY_MEASURE_WITH_UNIT (LENGTH_MEASURE( 1.000000000000000100E-005 ), #76, 'distance_accuracy_value', 'NONE');
#11 = DIRECTION ( 'NONE',  ( 0.0000000000000000000, -0.9238795325112846300, 0.3826834323650947200 ) ) ;
#12 = ORIENTED_EDGE ( 'NONE', *, *, #108, .F. ) ;
#13 = VERTEX_POINT ( 'NONE', #178 ) ;
#14 = PRESENTATION_LAYER_ASSIGNMENT (  '', '', ( #197 ) ) ;
#15 = AXIS2_PLACEMENT_3D ( 'NONE', #137, #43, #212 ) ;
#16 = VERTEX_POINT ( 'NONE', #64 ) ;
#17 = CARTESIAN_POINT ( 'NONE',  ( 0.0000000000000000000, 5.534611519445386800E-036, 9.725151222301631900E-017 ) ) ;
#18 = LINE ( 'NONE', #171, #161 ) ;
#19 = EDGE_CURVE ( 'NONE', #3, #109, #122, .T. ) ;
#20 = FILL_AREA_STYLE ('',( #156 ) ) ;
#21 = VERTEX_POINT ( 'NONE', #93 ) ;
#22 =( NAMED_UNIT ( * ) SI_UNIT ( $, .STERADIAN. ) SOLID_ANGLE_UNIT ( ) );
#23 = CIRCLE ( 'NONE', #105, 1.270000000000007100 ) ;
#24 = FACE_OUTER_BOUND ( 'NONE', #140, .T. ) ;
#25 = AXIS2_PLACEMENT_3D ( 'NONE', #182, #34, #36 ) ;
#26 = DIRECTION ( 'NONE',  ( -0.0000000000000000000, 5.691028748996174100E-020, 1.000000000000000000 ) ) ;
#27 = STYLED_ITEM ( 'NONE', ( #203 ), #86 ) ;
#28 = CIRCLE ( 'NONE', #62, 1.587500000000008300 ) ;
#29 = EDGE_LOOP ( 'NONE', ( #202, #58, #53 ) ) ;
#30 = VECTOR ( 'NONE', #192, 1000.000000000000000 ) ;
#31 = LINE ( 'NONE', #208, #205 ) ;
#32 = EDGE_CURVE ( 'NONE', #21, #13, #40, .T. ) ;
#33 = ADVANCED_FACE ( 'NONE', ( #117 ), #207, .T. ) ;
#34 = DIRECTION ( 'NONE',  ( -0.0000000000000000000, 5.691028748996174100E-020, 1.000000000000000000 ) ) ;
#35 = AXIS2_PLACEMENT_3D ( 'NONE', #104, #106, #4 ) ;
#36 = DIRECTION ( 'NONE',  ( 0.0000000000000000000, -1.000000000000000000, 5.691028748996174100E-020 ) ) ;
#37 = DIRECTION ( 'NONE',  ( 0.0000000000000000000, -5.691028748996174100E-020, -1.000000000000000000 ) ) ;
#38 =( GEOMETRIC_REPRESENTATION_CONTEXT ( 3 ) GLOBAL_UNCERTAINTY_ASSIGNED_CONTEXT ( ( #81 ) ) GLOBAL_UNIT_ASSIGNED_CONTEXT ( ( #68, #2, #50 ) ) REPRESENTATION_CONTEXT ( 'NONE', 'WORKASPACE' ) );
#39 =( GEOMETRIC_REPRESENTATION_CONTEXT ( 3 ) GLOBAL_UNCERTAINTY_ASSIGNED_CONTEXT ( ( #52 ) ) GLOBAL_UNIT_ASSIGNED_CONTEXT ( ( #78, #77, #22 ) ) REPRESENTATION_CONTEXT ( 'NONE', 'WORKASPACE' ) );
#40 = LINE ( 'NONE', #80, #200 ) ;
#41 = APPLICATION_CONTEXT ( 'automotive_design' ) ;
#42 = APPLICATION_PROTOCOL_DEFINITION ( 'draft international standard', 'automotive_design', 1998, #6 ) ;
#43 = DIRECTION ( 'NONE',  ( -0.0000000000000000000, 5.691028748996174100E-020, 1.000000000000000000 ) ) ;
#44 = DIRECTION ( 'NONE',  ( 0.0000000000000000000, 1.000000000000000000, -5.691028748996496700E-020 ) ) ;
#45 = PRODUCT_RELATED_PRODUCT_CATEGORY ( 'part', '', ( #204 ) ) ;
#46 = DIRECTION ( 'NONE',  ( 0.0000000000000000000, -1.000000000000000000, 0.0000000000000000000 ) ) ;
#47 = EDGE_CURVE ( 'NONE', #13, #184, #1, .T. ) ;
#48 = EDGE_LOOP ( 'NONE', ( #129, #65, #101 ) ) ;
#49 = AXIS2_PLACEMENT_3D ( 'NONE', #159, #125, #8 ) ;
#50 =( NAMED_UNIT ( * ) SI_UNIT ( $, .STERADIAN. ) SOLID_ANGLE_UNIT ( ) );
#51 = CARTESIAN_POINT ( 'NONE',  ( 0.0000000000000000000, -3.975183581173827000E-018, -69.84999999999999400 ) ) ;
#52 = UNCERTAINTY_MEASURE_WITH_UNIT (LENGTH_MEASURE( 1.000000000000000100E-005 ), #78, 'distance_accuracy_value', 'NONE');
#53 = ORIENTED_EDGE ( 'NONE', *, *, #166, .F. ) ;
#54 = DIRECTION ( 'NONE',  ( 1.000000000000000000, 0.0000000000000000000, 0.0000000000000000000 ) ) ;
#55 = SHAPE_DEFINITION_REPRESENTATION ( #142, #86 ) ;
#56 = SURFACE_STYLE_USAGE ( .BOTH. , #124 ) ;
#57 = ORIENTED_EDGE ( 'NONE', *, *, #196, .T. ) ;
#58 = ORIENTED_EDGE ( 'NONE', *, *, #183, .T. ) ;
#59 = DIRECTION ( 'NONE',  ( 0.0000000000000000000, -5.691028748996174100E-020, -1.000000000000000000 ) ) ;
#60 = CARTESIAN_POINT ( 'NONE',  ( 0.0000000000000000000, 1.587500000000000100, 9.716116714162599700E-017 ) ) ;
#61 = CARTESIAN_POINT ( 'NONE',  ( 0.0000000000000000000, 5.289768175078234300E-017, 929.4924359697327000 ) ) ;
#62 = AXIS2_PLACEMENT_3D ( 'NONE', #90, #111, #46 ) ;
#63 = FACE_OUTER_BOUND ( 'NONE', #48, .T. ) ;
#64 = CARTESIAN_POINT ( 'NONE',  ( 1.749714114281787800E-016, -1.270000000000007100, 9.732378828812857600E-017 ) ) ;
#65 = ORIENTED_EDGE ( 'NONE', *, *, #19, .T. ) ;
#66 = AXIS2_PLACEMENT_3D ( 'NONE', #135, #187, #206 ) ;
#67 = ADVANCED_FACE ( 'NONE', ( #167 ), #74, .T. ) ;
#68 =( LENGTH_UNIT ( ) NAMED_UNIT ( * ) SI_UNIT ( .MILLI., .METRE. ) );
#69 = VERTEX_POINT ( 'NONE', #84 ) ;
#70 = FILL_AREA_STYLE_COLOUR ( '', #153 ) ;
#71 = CIRCLE ( 'NONE', #160, 1.587500000000008300 ) ;
#72 = AXIS2_PLACEMENT_3D ( 'NONE', #175, #59, #79 ) ;
#73 = AXIS2_PLACEMENT_3D ( 'NONE', #134, #154, #54 ) ;
#74 = CYLINDRICAL_SURFACE ( 'NONE', #25, 1.587500000000004400 ) ;
#75 = ORIENTED_EDGE ( 'NONE', *, *, #166, .T. ) ;
#76 =( LENGTH_UNIT ( ) NAMED_UNIT ( * ) SI_UNIT ( .MILLI., .METRE. ) );
#77 =( NAMED_UNIT ( * ) PLANE_ANGLE_UNIT ( ) SI_UNIT ( $, .RADIAN. ) );
#78 =( LENGTH_UNIT ( ) NAMED_UNIT ( * ) SI_UNIT ( .MILLI., .METRE. ) );
#79 = DIRECTION ( 'NONE',  ( 0.0000000000000000000, 1.000000000000000000, 0.0000000000000000000 ) ) ;
#80 = CARTESIAN_POINT ( 'NONE',  ( 0.0000000000000000000, 1.270000000000007100, 9.717923615790406200E-017 ) ) ;
#81 = UNCERTAINTY_MEASURE_WITH_UNIT (LENGTH_MEASURE( 1.000000000000000100E-005 ), #68, 'distance_accuracy_value', 'NONE');
#82 = MANIFOLD_SOLID_BREP ( '¸ðµû±â1', #115 ) ;
#83 = CARTESIAN_POINT ( 'NONE',  ( 0.0000000000000000000, -1.806901627806260500E-020, -0.3174999999999956200 ) ) ;
#84 = CARTESIAN_POINT ( 'NONE',  ( 1.944126793646433600E-016, 1.587500000000008800, -69.84999999999999400 ) ) ;
#85 = CARTESIAN_POINT ( 'NONE',  ( 0.0000000000000000000, -1.587500000000004400, -0.3174999999999956200 ) ) ;
#86 = ADVANCED_BREP_SHAPE_REPRESENTATION ( '03-0344', ( #82, #73 ), #39 ) ;
#87 = ORIENTED_EDGE ( 'NONE', *, *, #173, .F. ) ;
#88 = CARTESIAN_POINT ( 'NONE',  ( 0.0000000000000000000, -1.587500000000008800, -69.84999999999999400 ) ) ;
#89 = AXIS2_PLACEMENT_3D ( 'NONE', #17, #37, #194 ) ;
#90 = CARTESIAN_POINT ( 'NONE',  ( 0.0000000000000000000, -3.975183581173827000E-018, -69.84999999999999400 ) ) ;
#91 = PRODUCT_DEFINITION_CONTEXT ( 'detailed design', #6, 'design' ) ;
#92 = DIRECTION ( 'NONE',  ( 0.0000000000000000000, -1.000000000000000000, 0.0000000000000000000 ) ) ;
#93 = CARTESIAN_POINT ( 'NONE',  ( 0.0000000000000000000, 1.270000000000007100, 9.717923615790406200E-017 ) ) ;
#94 = AXIS2_PLACEMENT_3D ( 'NONE', #61, #162, #92 ) ;
#95 = CARTESIAN_POINT ( 'NONE',  ( 0.0000000000000000000, -4.012605739179396400E-018, -70.50756403026730400 ) ) ;
#96 = EDGE_CURVE ( 'NONE', #16, #21, #193, .T. ) ;
#97 = ORIENTED_EDGE ( 'NONE', *, *, #173, .T. ) ;
#98 = EDGE_LOOP ( 'NONE', ( #87, #118, #136, #12 ) ) ;
#99 = SURFACE_SIDE_STYLE ('',( #170 ) ) ;
#100 = EDGE_LOOP ( 'NONE', ( #9, #195, #7, #155 ) ) ;
#101 = ORIENTED_EDGE ( 'NONE', *, *, #126, .F. ) ;
#102 = MECHANICAL_DESIGN_GEOMETRIC_PRESENTATION_REPRESENTATION (  '', ( #197 ), #38 ) ;
#103 = LINE ( 'NONE', #163, #30 ) ;
#104 = CARTESIAN_POINT ( 'NONE',  ( 0.0000000000000000000, 5.534611519445386800E-036, 9.725151222301631900E-017 ) ) ;
#105 = AXIS2_PLACEMENT_3D ( 'NONE', #127, #26, #44 ) ;
#106 = DIRECTION ( 'NONE',  ( 0.0000000000000000000, -5.691028748996174100E-020, -1.000000000000000000 ) ) ;
#107 = PRODUCT_CONTEXT ( 'NONE', #41, 'mechanical' ) ;
#108 = EDGE_CURVE ( 'NONE', #184, #13, #143, .T. ) ;
#109 = VERTEX_POINT ( 'NONE', #88 ) ;
#110 = VECTOR ( 'NONE', #152, 1000.000000000000000 ) ;
#111 = DIRECTION ( 'NONE',  ( -0.0000000000000000000, 5.691028748996174100E-020, 1.000000000000000000 ) ) ;
#112 = MECHANICAL_DESIGN_GEOMETRIC_PRESENTATION_REPRESENTATION (  '', ( #27 ), #131 ) ;
#113 = FACE_OUTER_BOUND ( 'NONE', #174, .T. ) ;
#114 = ADVANCED_FACE ( 'NONE', ( #63 ), #119, .T. ) ;
#115 = CLOSED_SHELL ( 'NONE', ( #33, #181, #168, #130, #114, #67, #199 ) ) ;
#116 = CONICAL_SURFACE ( 'NONE', #35, 1.270000000000007100, 0.7853981633974503900 ) ;
#117 = FACE_OUTER_BOUND ( 'NONE', #190, .T. ) ;
#118 = ORIENTED_EDGE ( 'NONE', *, *, #165, .F. ) ;
#119 = CONICAL_SURFACE ( 'NONE', #15, 2414.213562373058700, 1.178097245096167100 ) ;
#120 = DIRECTION ( 'NONE',  ( 0.0000000000000000000, -1.000000000000000000, 0.0000000000000000000 ) ) ;
#121 = DIRECTION ( 'NONE',  ( 8.659560562354952600E-017, -0.7071067811865489100, -0.7071067811865461300 ) ) ;
#122 = LINE ( 'NONE', #177, #164 ) ;
#123 = CARTESIAN_POINT ( 'NONE',  ( 1.944126793646428500E-016, 1.587500000000004400, -9.034508139031451500E-020 ) ) ;
#124 = SURFACE_SIDE_STYLE ('',( #157 ) ) ;
#125 = DIRECTION ( 'NONE',  ( -0.0000000000000000000, 5.691028748996174100E-020, 1.000000000000000000 ) ) ;
#126 = EDGE_CURVE ( 'NONE', #69, #109, #71, .T. ) ;
#127 = CARTESIAN_POINT ( 'NONE',  ( 0.0000000000000000000, 5.534611519445386800E-036, 9.725151222301631900E-017 ) ) ;
#128 = PRESENTATION_STYLE_ASSIGNMENT (( #145 ) ) ;
#129 = ORIENTED_EDGE ( 'NONE', *, *, #183, .F. ) ;
#130 = ADVANCED_FACE ( 'NONE', ( #113 ), #210, .F. ) ;
#131 =( GEOMETRIC_REPRESENTATION_CONTEXT ( 3 ) GLOBAL_UNCERTAINTY_ASSIGNED_CONTEXT ( ( #10 ) ) GLOBAL_UNIT_ASSIGNED_CONTEXT ( ( #76, #188, #209 ) ) REPRESENTATION_CONTEXT ( 'NONE', 'WORKASPACE' ) );
#132 = DIRECTION ( 'NONE',  ( 0.0000000000000000000, -5.691028748996174100E-020, -1.000000000000000000 ) ) ;
#133 = ORIENTED_EDGE ( 'NONE', *, *, #149, .F. ) ;
#134 = CARTESIAN_POINT ( 'NONE',  ( 0.0000000000000000000, 0.0000000000000000000, 0.0000000000000000000 ) ) ;
#135 = CARTESIAN_POINT ( 'NONE',  ( 0.0000000000000000000, 0.0000000000000000000, 0.0000000000000000000 ) ) ;
#136 = ORIENTED_EDGE ( 'NONE', *, *, #32, .T. ) ;
#137 = CARTESIAN_POINT ( 'NONE',  ( 0.0000000000000000000, 5.289768175078234300E-017, 929.4924359697327000 ) ) ;
#138 = DIRECTION ( 'NONE',  ( 0.0000000000000000000, 0.7071067811865489100, -0.7071067811865461300 ) ) ;
#139 = ORIENTED_EDGE ( 'NONE', *, *, #96, .T. ) ;
#140 = EDGE_LOOP ( 'NONE', ( #75, #57, #185, #133 ) ) ;
#141 = ORIENTED_EDGE ( 'NONE', *, *, #47, .F. ) ;
#142 = PRODUCT_DEFINITION_SHAPE ( 'NONE', 'NONE',  #176 ) ;
#143 = CIRCLE ( 'NONE', #72, 1.587500000000004400 ) ;
#144 = PRODUCT_DEFINITION_FORMATION_WITH_SPECIFIED_SOURCE ( 'ANY', '', #204, .NOT_KNOWN. ) ;
#145 = SURFACE_STYLE_USAGE ( .BOTH. , #99 ) ;
#146 = DIRECTION ( 'NONE',  ( 0.0000000000000000000, 1.000000000000000000, 0.0000000000000000000 ) ) ;
#147 = ORIENTED_EDGE ( 'NONE', *, *, #165, .T. ) ;
#148 = COLOUR_RGB ( '',0.7921568627450980000, 0.8196078431372548800, 0.9333333333333333500 ) ;
#149 = EDGE_CURVE ( 'NONE', #109, #184, #103, .T. ) ;
#150 = CYLINDRICAL_SURFACE ( 'NONE', #66, 1.587500000000004400 ) ;
#151 = PRESENTATION_LAYER_ASSIGNMENT (  '', '', ( #27 ) ) ;
#152 = DIRECTION ( 'NONE',  ( -0.0000000000000000000, 5.691028748996174100E-020, 1.000000000000000000 ) ) ;
#153 = COLOUR_RGB ( '',0.7921568627450980000, 0.8196078431372548800, 0.9333333333333333500 ) ;
#154 = DIRECTION ( 'NONE',  ( 0.0000000000000000000, 0.0000000000000000000, 1.000000000000000000 ) ) ;
#155 = ORIENTED_EDGE ( 'NONE', *, *, #108, .T. ) ;
#156 = FILL_AREA_STYLE_COLOUR ( '', #148 ) ;
#157 = SURFACE_STYLE_FILL_AREA ( #20 ) ;
#158 = FACE_OUTER_BOUND ( 'NONE', #29, .T. ) ;
#159 = CARTESIAN_POINT ( 'NONE',  ( 0.0000000000000000000, 5.534611519445386800E-036, 9.725151222301631900E-017 ) ) ;
#160 = AXIS2_PLACEMENT_3D ( 'NONE', #51, #201, #120 ) ;
#161 = VECTOR ( 'NONE', #121, 1000.000000000000100 ) ;
#162 = DIRECTION ( 'NONE',  ( -0.0000000000000000000, 5.691028748996174100E-020, 1.000000000000000000 ) ) ;
#163 = CARTESIAN_POINT ( 'NONE',  ( 0.0000000000000000000, -1.587500000000004400, 9.034508139031451500E-020 ) ) ;
#164 = VECTOR ( 'NONE', #11, 1000.000000000000100 ) ;
#165 = EDGE_CURVE ( 'NONE', #21, #16, #23, .T. ) ;
#166 = EDGE_CURVE ( 'NONE', #109, #69, #28, .T. ) ;
#167 = FACE_OUTER_BOUND ( 'NONE', #100, .T. ) ;
#168 = ADVANCED_FACE ( 'NONE', ( #158 ), #211, .T. ) ;
#169 = FILL_AREA_STYLE ('',( #70 ) ) ;
#170 = SURFACE_STYLE_FILL_AREA ( #169 ) ;
#171 = CARTESIAN_POINT ( 'NONE',  ( 1.555301434917147200E-016, -1.270000000000007100, 9.732378828812857600E-017 ) ) ;
#172 = APPLICATION_PROTOCOL_DEFINITION ( 'draft international standard', 'automotive_design', 1998, #41 ) ;
#173 = EDGE_CURVE ( 'NONE', #16, #184, #18, .T. ) ;
#174 = EDGE_LOOP ( 'NONE', ( #147, #139 ) ) ;
#175 = CARTESIAN_POINT ( 'NONE',  ( 0.0000000000000000000, -1.806901627806260500E-020, -0.3174999999999956200 ) ) ;
#176 = PRODUCT_DEFINITION ( 'UNKNOWN', '', #144, #91 ) ;
#177 = CARTESIAN_POINT ( 'NONE',  ( 0.0000000000000000000, -4.012605739179398000E-018, -70.50756403026730400 ) ) ;
#178 = CARTESIAN_POINT ( 'NONE',  ( 1.944126793646428500E-016, 1.587500000000004400, -0.3174999999999956200 ) ) ;
#179 = ORIENTED_EDGE ( 'NONE', *, *, #32, .F. ) ;
#180 = AXIS2_PLACEMENT_3D ( 'NONE', #60, #214, #213 ) ;
#181 = ADVANCED_FACE ( 'NONE', ( #24 ), #150, .T. ) ;
#182 = CARTESIAN_POINT ( 'NONE',  ( 0.0000000000000000000, 0.0000000000000000000, 0.0000000000000000000 ) ) ;
#183 = EDGE_CURVE ( 'NONE', #3, #69, #31, .T. ) ;
#184 = VERTEX_POINT ( 'NONE', #85 ) ;
#185 = ORIENTED_EDGE ( 'NONE', *, *, #47, .T. ) ;
#186 = AXIS2_PLACEMENT_3D ( 'NONE', #83, #132, #146 ) ;
#187 = DIRECTION ( 'NONE',  ( -0.0000000000000000000, 5.691028748996174100E-020, 1.000000000000000000 ) ) ;
#188 =( NAMED_UNIT ( * ) PLANE_ANGLE_UNIT ( ) SI_UNIT ( $, .RADIAN. ) );
#189 = ORIENTED_EDGE ( 'NONE', *, *, #96, .F. ) ;
#190 = EDGE_LOOP ( 'NONE', ( #189, #97, #141, #179 ) ) ;
#191 = LINE ( 'NONE', #123, #110 ) ;
#192 = DIRECTION ( 'NONE',  ( -0.0000000000000000000, 5.691028748996174100E-020, 1.000000000000000000 ) ) ;
#193 = CIRCLE ( 'NONE', #49, 1.270000000000007100 ) ;
#194 = DIRECTION ( 'NONE',  ( 0.0000000000000000000, 1.000000000000000000, -5.691028748996496700E-020 ) ) ;
#195 = ORIENTED_EDGE ( 'NONE', *, *, #126, .T. ) ;
#196 = EDGE_CURVE ( 'NONE', #69, #13, #191, .T. ) ;
#197 = STYLED_ITEM ( 'NONE', ( #128 ), #82 ) ;
#198 = FACE_OUTER_BOUND ( 'NONE', #98, .T. ) ;
#199 = ADVANCED_FACE ( 'NONE', ( #198 ), #116, .T. ) ;
#200 = VECTOR ( 'NONE', #138, 1000.000000000000100 ) ;
#201 = DIRECTION ( 'NONE',  ( -0.0000000000000000000, 5.691028748996174100E-020, 1.000000000000000000 ) ) ;
#202 = ORIENTED_EDGE ( 'NONE', *, *, #19, .F. ) ;
#203 = PRESENTATION_STYLE_ASSIGNMENT (( #56 ) ) ;
#204 = PRODUCT ( '03-0344', '03-0344', '', ( #107 ) ) ;
#205 = VECTOR ( 'NONE', #5, 1000.000000000000100 ) ;
#206 = DIRECTION ( 'NONE',  ( 0.0000000000000000000, -1.000000000000000000, 5.691028748996174100E-020 ) ) ;
#207 = CONICAL_SURFACE ( 'NONE', #89, 1.270000000000007100, 0.7853981633974503900 ) ;
#208 = CARTESIAN_POINT ( 'NONE',  ( 9.213218522561986100E-050, -4.012605739179396400E-018, -70.50756403026730400 ) ) ;
#209 =( NAMED_UNIT ( * ) SI_UNIT ( $, .STERADIAN. ) SOLID_ANGLE_UNIT ( ) );
#210 = PLANE ( 'NONE',  #180 ) ;
#211 = CONICAL_SURFACE ( 'NONE', #94, 2414.213562373058700, 1.178097245096167100 ) ;
#212 = DIRECTION ( 'NONE',  ( 0.0000000000000000000, -1.000000000000000000, 0.0000000000000000000 ) ) ;
#213 = DIRECTION ( 'NONE',  ( 0.0000000000000000000, 1.000000000000000000, -5.691028748996174100E-020 ) ) ;
#214 = DIRECTION ( 'NONE',  ( 0.0000000000000000000, -5.691028748996174100E-020, -1.000000000000000000 ) ) ;
ENDSEC;
END-ISO-10303-21;
