ISO-10303-21;
HEADER;
FILE_DESCRIPTION (( 'STEP AP214' ),
    '1' );
FILE_NAME ('03-0345.STEP',
    '2020-07-23T07:00:07',
    ( '' ),
    ( '' ),
    'SwSTEP 2.0',
    'SolidWorks 2014',
    '' );
FILE_SCHEMA (( 'AUTOMOTIVE_DESIGN' ));
ENDSEC;

DATA;
#1 = DIRECTION ( 'NONE',  ( -0.0000000000000000000, 6.324999768858620300E-020, 1.000000000000000000 ) ) ;
#2 = VERTEX_POINT ( 'NONE', #122 ) ;
#3 = DIRECTION ( 'NONE',  ( 0.0000000000000000000, 1.000000000000000000, -6.324999768858772000E-020 ) ) ;
#4 = MECHANICAL_DESIGN_GEOMETRIC_PRESENTATION_REPRESENTATION (  '', ( #74 ), #27 ) ;
#5 = ADVANCED_FACE ( 'NONE', ( #17 ), #70, .T. ) ;
#6 = EDGE_LOOP ( 'NONE', ( #33, #10 ) ) ;
#7 = ADVANCED_FACE ( 'NONE', ( #73 ), #22, .T. ) ;
#8 = EDGE_CURVE ( 'NONE', #45, #169, #112, .T. ) ;
#9 = LINE ( 'NONE', #64, #61 ) ;
#10 = ORIENTED_EDGE ( 'NONE', *, *, #165, .T. ) ;
#11 = EDGE_CURVE ( 'NONE', #57, #76, #180, .T. ) ;
#12 = DIRECTION ( 'NONE',  ( 0.0000000000000000000, -1.000000000000000000, 6.324999768858620300E-020 ) ) ;
#13 = PRODUCT_DEFINITION_FORMATION_WITH_SPECIFIED_SOURCE ( 'ANY', '', #184, .NOT_KNOWN. ) ;
#14 = CARTESIAN_POINT ( 'NONE',  ( 0.0000000000000000000, -1.785937500000004600, 1.129605427469597100E-019 ) ) ;
#15 = VECTOR ( 'NONE', #156, 1000.000000000000000 ) ;
#16 = EDGE_CURVE ( 'NONE', #2, #72, #59, .T. ) ;
#17 = FACE_OUTER_BOUND ( 'NONE', #183, .T. ) ;
#18 = DIRECTION ( 'NONE',  ( 1.131426112287698000E-016, 0.9238795325112848500, 0.3826834323650940600 ) ) ;
#19 = ORIENTED_EDGE ( 'NONE', *, *, #8, .F. ) ;
#20 = SURFACE_SIDE_STYLE ('',( #164 ) ) ;
#21 = FILL_AREA_STYLE_COLOUR ( '', #211 ) ;
#22 = CONICAL_SURFACE ( 'NONE', #147, 1.428749999999992400, 0.7853981633974479500 ) ;
#23 = AXIS2_PLACEMENT_3D ( 'NONE', #66, #113, #127 ) ;
#24 = FACE_OUTER_BOUND ( 'NONE', #82, .T. ) ;
#25 = EDGE_CURVE ( 'NONE', #45, #72, #9, .T. ) ;
#26 = AXIS2_PLACEMENT_3D ( 'NONE', #124, #90, #28 ) ;
#27 =( GEOMETRIC_REPRESENTATION_CONTEXT ( 3 ) GLOBAL_UNCERTAINTY_ASSIGNED_CONTEXT ( ( #71 ) ) GLOBAL_UNIT_ASSIGNED_CONTEXT ( ( #146, #58, #116 ) ) REPRESENTATION_CONTEXT ( 'NONE', 'WORKASPACE' ) );
#28 = DIRECTION ( 'NONE',  ( 0.0000000000000000000, 1.000000000000000000, -6.324999768858620300E-020 ) ) ;
#29 = DIRECTION ( 'NONE',  ( 0.0000000000000000000, -1.000000000000000000, 6.324999768858620300E-020 ) ) ;
#30 = CARTESIAN_POINT ( 'NONE',  ( 0.0000000000000000000, 0.0000000000000000000, 0.0000000000000000000 ) ) ;
#31 = CARTESIAN_POINT ( 'NONE',  ( 0.0000000000000000000, -4.618831081209006900E-018, -73.02499999999999100 ) ) ;
#32 = ORIENTED_EDGE ( 'NONE', *, *, #53, .T. ) ;
#33 = ORIENTED_EDGE ( 'NONE', *, *, #8, .T. ) ;
#34 = APPLICATION_CONTEXT ( 'automotive_design' ) ;
#35 = DIRECTION ( 'NONE',  ( 0.0000000000000000000, -1.000000000000000000, 0.0000000000000000000 ) ) ;
#36 = CIRCLE ( 'NONE', #100, 1.428749999999992400 ) ;
#37 =( NAMED_UNIT ( * ) PLANE_ANGLE_UNIT ( ) SI_UNIT ( $, .RADIAN. ) );
#38 = VECTOR ( 'NONE', #88, 1000.000000000000000 ) ;
#39 = PRODUCT_DEFINITION_SHAPE ( 'NONE', 'NONE',  #134 ) ;
#40 = LINE ( 'NONE', #157, #209 ) ;
#41 = UNCERTAINTY_MEASURE_WITH_UNIT (LENGTH_MEASURE( 1.000000000000000100E-005 ), #194, 'distance_accuracy_value', 'NONE');
#42 = AXIS2_PLACEMENT_3D ( 'NONE', #172, #75, #206 ) ;
#43 = LINE ( 'NONE', #141, #38 ) ;
#44 = CONICAL_SURFACE ( 'NONE', #23, 2414.213562373062800, 1.178097245096167800 ) ;
#45 = VERTEX_POINT ( 'NONE', #171 ) ;
#46 = AXIS2_PLACEMENT_3D ( 'NONE', #160, #143, #3 ) ;
#47 = FACE_OUTER_BOUND ( 'NONE', #6, .T. ) ;
#48 = DIRECTION ( 'NONE',  ( -0.0000000000000000000, 6.324999768858620300E-020, 1.000000000000000000 ) ) ;
#49 = CARTESIAN_POINT ( 'NONE',  ( 2.187142642852231500E-016, 1.785937500000004600, -0.3571875000000121500 ) ) ;
#50 = DIRECTION ( 'NONE',  ( -0.0000000000000000000, 6.324999768858620300E-020, 1.000000000000000000 ) ) ;
#51 = CARTESIAN_POINT ( 'NONE',  ( 0.0000000000000000000, 0.0000000000000000000, 0.0000000000000000000 ) ) ;
#52 = ORIENTED_EDGE ( 'NONE', *, *, #80, .T. ) ;
#53 = EDGE_CURVE ( 'NONE', #76, #2, #162, .T. ) ;
#54 = APPLICATION_PROTOCOL_DEFINITION ( 'draft international standard', 'automotive_design', 1998, #34 ) ;
#55 = PRODUCT_CONTEXT ( 'NONE', #77, 'mechanical' ) ;
#56 = AXIS2_PLACEMENT_3D ( 'NONE', #163, #174, #159 ) ;
#57 = VERTEX_POINT ( 'NONE', #105 ) ;
#58 =( NAMED_UNIT ( * ) PLANE_ANGLE_UNIT ( ) SI_UNIT ( $, .RADIAN. ) );
#59 = CIRCLE ( 'NONE', #212, 1.785937500000004600 ) ;
#60 =( GEOMETRIC_REPRESENTATION_CONTEXT ( 3 ) GLOBAL_UNCERTAINTY_ASSIGNED_CONTEXT ( ( #41 ) ) GLOBAL_UNIT_ASSIGNED_CONTEXT ( ( #194, #214, #129 ) ) REPRESENTATION_CONTEXT ( 'NONE', 'WORKASPACE' ) );
#61 = VECTOR ( 'NONE', #123, 1000.000000000000000 ) ;
#62 = CARTESIAN_POINT ( 'NONE',  ( 0.0000000000000000000, -4.665620870027824000E-018, -73.76475953405071100 ) ) ;
#63 = CARTESIAN_POINT ( 'NONE',  ( 0.0000000000000000000, 6.920410732284404300E-036, 1.094136124139847800E-016 ) ) ;
#64 = CARTESIAN_POINT ( 'NONE',  ( 0.0000000000000000000, 1.428749999999992400, 1.093232439797872100E-016 ) ) ;
#65 = CARTESIAN_POINT ( 'NONE',  ( 0.0000000000000000000, -4.665620870027824000E-018, -73.76475953405071100 ) ) ;
#66 = CARTESIAN_POINT ( 'NONE',  ( 0.0000000000000000000, 5.858437681855837800E-017, 926.2352404659493500 ) ) ;
#67 = SURFACE_SIDE_STYLE ('',( #181 ) ) ;
#68 = VECTOR ( 'NONE', #139, 1000.000000000000100 ) ;
#69 = CIRCLE ( 'NONE', #42, 1.785937500000004600 ) ;
#70 = CYLINDRICAL_SURFACE ( 'NONE', #182, 1.785937500000004600 ) ;
#71 = UNCERTAINTY_MEASURE_WITH_UNIT (LENGTH_MEASURE( 1.000000000000000100E-005 ), #146, 'distance_accuracy_value', 'NONE');
#72 = VERTEX_POINT ( 'NONE', #49 ) ;
#73 = FACE_OUTER_BOUND ( 'NONE', #101, .T. ) ;
#74 = STYLED_ITEM ( 'NONE', ( #85 ), #149 ) ;
#75 = DIRECTION ( 'NONE',  ( 0.0000000000000000000, -6.324999768858620300E-020, -1.000000000000000000 ) ) ;
#76 = VERTEX_POINT ( 'NONE', #170 ) ;
#77 = APPLICATION_CONTEXT ( 'automotive_design' ) ;
#78 = CARTESIAN_POINT ( 'NONE',  ( 0.0000000000000000000, 5.858437681855837800E-017, 926.2352404659493500 ) ) ;
#79 = FILL_AREA_STYLE_COLOUR ( '', #103 ) ;
#80 = EDGE_CURVE ( 'NONE', #189, #72, #43, .T. ) ;
#81 = DIRECTION ( 'NONE',  ( 8.659560562354930400E-017, -0.7071067811865473500, -0.7071067811865477900 ) ) ;
#82 = EDGE_LOOP ( 'NONE', ( #154, #19, #130, #119 ) ) ;
#83 = PRODUCT_RELATED_PRODUCT_CATEGORY ( 'part', '', ( #184 ) ) ;
#84 = FACE_OUTER_BOUND ( 'NONE', #198, .T. ) ;
#85 = PRESENTATION_STYLE_ASSIGNMENT (( #177 ) ) ;
#86 = ORIENTED_EDGE ( 'NONE', *, *, #175, .F. ) ;
#87 = EDGE_CURVE ( 'NONE', #57, #189, #153, .T. ) ;
#88 = DIRECTION ( 'NONE',  ( -0.0000000000000000000, 6.324999768858620300E-020, 1.000000000000000000 ) ) ;
#89 = EDGE_CURVE ( 'NONE', #72, #2, #69, .T. ) ;
#90 = DIRECTION ( 'NONE',  ( 0.0000000000000000000, -6.324999768858620300E-020, -1.000000000000000000 ) ) ;
#91 = CARTESIAN_POINT ( 'NONE',  ( 2.187142642852237400E-016, 1.785937500000008800, -73.02499999999999100 ) ) ;
#92 = EDGE_LOOP ( 'NONE', ( #117, #128, #132 ) ) ;
#93 = ORIENTED_EDGE ( 'NONE', *, *, #191, .T. ) ;
#94 = CARTESIAN_POINT ( 'NONE',  ( 0.0000000000000000000, 6.920410732284404300E-036, 1.094136124139847800E-016 ) ) ;
#95 = CONICAL_SURFACE ( 'NONE', #138, 2414.213562373062800, 1.178097245096167800 ) ;
#96 = AXIS2_PLACEMENT_3D ( 'NONE', #114, #99, #35 ) ;
#97 = ORIENTED_EDGE ( 'NONE', *, *, #165, .F. ) ;
#98 = FILL_AREA_STYLE ('',( #79 ) ) ;
#99 = DIRECTION ( 'NONE',  ( -0.0000000000000000000, 6.324999768858620300E-020, 1.000000000000000000 ) ) ;
#100 = AXIS2_PLACEMENT_3D ( 'NONE', #94, #213, #190 ) ;
#101 = EDGE_LOOP ( 'NONE', ( #97, #93, #104, #196 ) ) ;
#102 =( GEOMETRIC_REPRESENTATION_CONTEXT ( 3 ) GLOBAL_UNCERTAINTY_ASSIGNED_CONTEXT ( ( #199 ) ) GLOBAL_UNIT_ASSIGNED_CONTEXT ( ( #111, #37, #144 ) ) REPRESENTATION_CONTEXT ( 'NONE', 'WORKASPACE' ) );
#103 = COLOUR_RGB ( '',0.7921568627450980000, 0.8196078431372548800, 0.9333333333333333500 ) ;
#104 = ORIENTED_EDGE ( 'NONE', *, *, #89, .F. ) ;
#105 = CARTESIAN_POINT ( 'NONE',  ( 0.0000000000000000000, -4.665620870027824000E-018, -73.76475953405071100 ) ) ;
#106 = FACE_OUTER_BOUND ( 'NONE', #202, .T. ) ;
#107 = DIRECTION ( 'NONE',  ( 0.0000000000000000000, 1.000000000000000000, -6.324999768858772000E-020 ) ) ;
#108 = DIRECTION ( 'NONE',  ( -0.0000000000000000000, 6.324999768858620300E-020, 1.000000000000000000 ) ) ;
#109 = DIRECTION ( 'NONE',  ( 0.0000000000000000000, 1.000000000000000000, -6.324999768858772000E-020 ) ) ;
#110 = VECTOR ( 'NONE', #18, 1000.000000000000100 ) ;
#111 =( LENGTH_UNIT ( ) NAMED_UNIT ( * ) SI_UNIT ( .MILLI., .METRE. ) );
#112 = CIRCLE ( 'NONE', #197, 1.428749999999992400 ) ;
#113 = DIRECTION ( 'NONE',  ( -0.0000000000000000000, 6.324999768858620300E-020, 1.000000000000000000 ) ) ;
#114 = CARTESIAN_POINT ( 'NONE',  ( 0.0000000000000000000, -4.618831081209006900E-018, -73.02499999999999100 ) ) ;
#115 = SURFACE_STYLE_USAGE ( .BOTH. , #20 ) ;
#116 =( NAMED_UNIT ( * ) SI_UNIT ( $, .STERADIAN. ) SOLID_ANGLE_UNIT ( ) );
#117 = ORIENTED_EDGE ( 'NONE', *, *, #87, .F. ) ;
#118 = ORIENTED_EDGE ( 'NONE', *, *, #16, .T. ) ;
#119 = ORIENTED_EDGE ( 'NONE', *, *, #16, .F. ) ;
#120 = PRESENTATION_STYLE_ASSIGNMENT (( #115 ) ) ;
#121 = PRESENTATION_LAYER_ASSIGNMENT (  '', '', ( #74 ) ) ;
#122 = CARTESIAN_POINT ( 'NONE',  ( 0.0000000000000000000, -1.785937500000004600, -0.3571875000000121500 ) ) ;
#123 = DIRECTION ( 'NONE',  ( 0.0000000000000000000, 0.7071067811865473500, -0.7071067811865477900 ) ) ;
#124 = CARTESIAN_POINT ( 'NONE',  ( 0.0000000000000000000, 1.785937500000000200, 1.093006518712378300E-016 ) ) ;
#125 = APPLICATION_PROTOCOL_DEFINITION ( 'draft international standard', 'automotive_design', 1998, #77 ) ;
#126 = DIRECTION ( 'NONE',  ( 0.0000000000000000000, -1.000000000000000000, 0.0000000000000000000 ) ) ;
#127 = DIRECTION ( 'NONE',  ( 0.0000000000000000000, -1.000000000000000000, 0.0000000000000000000 ) ) ;
#128 = ORIENTED_EDGE ( 'NONE', *, *, #11, .T. ) ;
#129 =( NAMED_UNIT ( * ) SI_UNIT ( $, .STERADIAN. ) SOLID_ANGLE_UNIT ( ) );
#130 = ORIENTED_EDGE ( 'NONE', *, *, #25, .T. ) ;
#131 = MECHANICAL_DESIGN_GEOMETRIC_PRESENTATION_REPRESENTATION (  '', ( #203 ), #102 ) ;
#132 = ORIENTED_EDGE ( 'NONE', *, *, #142, .F. ) ;
#133 = CLOSED_SHELL ( 'NONE', ( #7, #5, #193, #150, #192, #148, #195 ) ) ;
#134 = PRODUCT_DEFINITION ( 'UNKNOWN', '', #13, #140 ) ;
#135 = CONICAL_SURFACE ( 'NONE', #46, 1.428749999999992400, 0.7853981633974479500 ) ;
#136 = ORIENTED_EDGE ( 'NONE', *, *, #80, .F. ) ;
#137 = ORIENTED_EDGE ( 'NONE', *, *, #89, .T. ) ;
#138 = AXIS2_PLACEMENT_3D ( 'NONE', #78, #1, #126 ) ;
#139 = DIRECTION ( 'NONE',  ( 0.0000000000000000000, -0.9238795325112848500, 0.3826834323650940600 ) ) ;
#140 = PRODUCT_DEFINITION_CONTEXT ( 'detailed design', #34, 'design' ) ;
#141 = CARTESIAN_POINT ( 'NONE',  ( 2.187142642852231500E-016, 1.785937500000004600, -1.129605427469597100E-019 ) ) ;
#142 = EDGE_CURVE ( 'NONE', #189, #76, #151, .T. ) ;
#143 = DIRECTION ( 'NONE',  ( 0.0000000000000000000, -6.324999768858620300E-020, -1.000000000000000000 ) ) ;
#144 =( NAMED_UNIT ( * ) SI_UNIT ( $, .STERADIAN. ) SOLID_ANGLE_UNIT ( ) );
#145 = SHAPE_DEFINITION_REPRESENTATION ( #39, #149 ) ;
#146 =( LENGTH_UNIT ( ) NAMED_UNIT ( * ) SI_UNIT ( .MILLI., .METRE. ) );
#147 = AXIS2_PLACEMENT_3D ( 'NONE', #185, #204, #107 ) ;
#148 = ADVANCED_FACE ( 'NONE', ( #84 ), #200, .T. ) ;
#149 = ADVANCED_BREP_SHAPE_REPRESENTATION ( '03-0345', ( #205, #56 ), #60 ) ;
#150 = ADVANCED_FACE ( 'NONE', ( #47 ), #186, .F. ) ;
#151 = CIRCLE ( 'NONE', #178, 1.785937500000008800 ) ;
#152 = FACE_OUTER_BOUND ( 'NONE', #92, .T. ) ;
#153 = LINE ( 'NONE', #65, #110 ) ;
#154 = ORIENTED_EDGE ( 'NONE', *, *, #191, .F. ) ;
#155 = DIRECTION ( 'NONE',  ( 0.0000000000000000000, 1.000000000000000000, 0.0000000000000000000 ) ) ;
#156 = DIRECTION ( 'NONE',  ( -0.0000000000000000000, 6.324999768858620300E-020, 1.000000000000000000 ) ) ;
#157 = CARTESIAN_POINT ( 'NONE',  ( 1.749714114281771600E-016, -1.428749999999992400, 1.095039808481823500E-016 ) ) ;
#158 = ORIENTED_EDGE ( 'NONE', *, *, #53, .F. ) ;
#159 = DIRECTION ( 'NONE',  ( 1.000000000000000000, 0.0000000000000000000, 0.0000000000000000000 ) ) ;
#160 = CARTESIAN_POINT ( 'NONE',  ( 0.0000000000000000000, 6.920410732284404300E-036, 1.094136124139847800E-016 ) ) ;
#161 = FILL_AREA_STYLE ('',( #21 ) ) ;
#162 = LINE ( 'NONE', #14, #15 ) ;
#163 = CARTESIAN_POINT ( 'NONE',  ( 0.0000000000000000000, 0.0000000000000000000, 0.0000000000000000000 ) ) ;
#164 = SURFACE_STYLE_FILL_AREA ( #98 ) ;
#165 = EDGE_CURVE ( 'NONE', #169, #45, #36, .T. ) ;
#166 = ORIENTED_EDGE ( 'NONE', *, *, #87, .T. ) ;
#167 = ORIENTED_EDGE ( 'NONE', *, *, #11, .F. ) ;
#168 = AXIS2_PLACEMENT_3D ( 'NONE', #30, #50, #12 ) ;
#169 = VERTEX_POINT ( 'NONE', #210 ) ;
#170 = CARTESIAN_POINT ( 'NONE',  ( 0.0000000000000000000, -1.785937500000008800, -73.02499999999999100 ) ) ;
#171 = CARTESIAN_POINT ( 'NONE',  ( 0.0000000000000000000, 1.428749999999992400, 1.093232439797872100E-016 ) ) ;
#172 = CARTESIAN_POINT ( 'NONE',  ( 0.0000000000000000000, -2.259210854939265400E-020, -0.3571875000000121500 ) ) ;
#173 = DIRECTION ( 'NONE',  ( -0.0000000000000000000, 6.324999768858620300E-020, 1.000000000000000000 ) ) ;
#174 = DIRECTION ( 'NONE',  ( 0.0000000000000000000, 0.0000000000000000000, 1.000000000000000000 ) ) ;
#175 = EDGE_CURVE ( 'NONE', #76, #189, #188, .T. ) ;
#176 = ORIENTED_EDGE ( 'NONE', *, *, #175, .T. ) ;
#177 = SURFACE_STYLE_USAGE ( .BOTH. , #67 ) ;
#178 = AXIS2_PLACEMENT_3D ( 'NONE', #31, #173, #187 ) ;
#179 = ORIENTED_EDGE ( 'NONE', *, *, #142, .T. ) ;
#180 = LINE ( 'NONE', #62, #68 ) ;
#181 = SURFACE_STYLE_FILL_AREA ( #161 ) ;
#182 = AXIS2_PLACEMENT_3D ( 'NONE', #51, #108, #29 ) ;
#183 = EDGE_LOOP ( 'NONE', ( #176, #52, #137, #158 ) ) ;
#184 = PRODUCT ( '03-0345', '03-0345', '', ( #55 ) ) ;
#185 = CARTESIAN_POINT ( 'NONE',  ( 0.0000000000000000000, 6.920410732284404300E-036, 1.094136124139847800E-016 ) ) ;
#186 = PLANE ( 'NONE',  #26 ) ;
#187 = DIRECTION ( 'NONE',  ( 0.0000000000000000000, -1.000000000000000000, 0.0000000000000000000 ) ) ;
#188 = CIRCLE ( 'NONE', #96, 1.785937500000008800 ) ;
#189 = VERTEX_POINT ( 'NONE', #91 ) ;
#190 = DIRECTION ( 'NONE',  ( 0.0000000000000000000, 1.000000000000000000, -6.324999768858772000E-020 ) ) ;
#191 = EDGE_CURVE ( 'NONE', #169, #2, #40, .T. ) ;
#192 = ADVANCED_FACE ( 'NONE', ( #152 ), #44, .T. ) ;
#193 = ADVANCED_FACE ( 'NONE', ( #106 ), #95, .T. ) ;
#194 =( LENGTH_UNIT ( ) NAMED_UNIT ( * ) SI_UNIT ( .MILLI., .METRE. ) );
#195 = ADVANCED_FACE ( 'NONE', ( #24 ), #135, .T. ) ;
#196 = ORIENTED_EDGE ( 'NONE', *, *, #25, .F. ) ;
#197 = AXIS2_PLACEMENT_3D ( 'NONE', #63, #48, #109 ) ;
#198 = EDGE_LOOP ( 'NONE', ( #136, #179, #32, #118 ) ) ;
#199 = UNCERTAINTY_MEASURE_WITH_UNIT (LENGTH_MEASURE( 1.000000000000000100E-005 ), #111, 'distance_accuracy_value', 'NONE');
#200 = CYLINDRICAL_SURFACE ( 'NONE', #168, 1.785937500000004600 ) ;
#201 = PRESENTATION_LAYER_ASSIGNMENT (  '', '', ( #203 ) ) ;
#202 = EDGE_LOOP ( 'NONE', ( #167, #166, #86 ) ) ;
#203 = STYLED_ITEM ( 'NONE', ( #120 ), #205 ) ;
#204 = DIRECTION ( 'NONE',  ( 0.0000000000000000000, -6.324999768858620300E-020, -1.000000000000000000 ) ) ;
#205 = MANIFOLD_SOLID_BREP ( '¸ðµû±â1', #133 ) ;
#206 = DIRECTION ( 'NONE',  ( 0.0000000000000000000, 1.000000000000000000, 0.0000000000000000000 ) ) ;
#207 = DIRECTION ( 'NONE',  ( 0.0000000000000000000, -6.324999768858620300E-020, -1.000000000000000000 ) ) ;
#208 = CARTESIAN_POINT ( 'NONE',  ( 0.0000000000000000000, -2.259210854939265400E-020, -0.3571875000000121500 ) ) ;
#209 = VECTOR ( 'NONE', #81, 1000.000000000000000 ) ;
#210 = CARTESIAN_POINT ( 'NONE',  ( 1.968428378567001600E-016, -1.428749999999992400, 1.095039808481823500E-016 ) ) ;
#211 = COLOUR_RGB ( '',0.7921568627450980000, 0.8196078431372548800, 0.9333333333333333500 ) ;
#212 = AXIS2_PLACEMENT_3D ( 'NONE', #208, #207, #155 ) ;
#213 = DIRECTION ( 'NONE',  ( -0.0000000000000000000, 6.324999768858620300E-020, 1.000000000000000000 ) ) ;
#214 =( NAMED_UNIT ( * ) PLANE_ANGLE_UNIT ( ) SI_UNIT ( $, .RADIAN. ) );
ENDSEC;
END-ISO-10303-21;
