ISO-10303-21;
HEADER;
FILE_DESCRIPTION (( 'STEP AP214' ),
    '1' );
FILE_NAME ('03-0346.STEP',
    '2020-07-23T07:00:48',
    ( '' ),
    ( '' ),
    'SwSTEP 2.0',
    'SolidWorks 2014',
    '' );
FILE_SCHEMA (( 'AUTOMOTIVE_DESIGN' ));
ENDSEC;

DATA;
#1 = PLANE ( 'NONE',  #124 ) ;
#2 = VECTOR ( 'NONE', #19, 1000.000000000000000 ) ;
#3 = DIRECTION ( 'NONE',  ( 0.0000000000000000000, 0.7071067811865483500, -0.7071067811865468000 ) ) ;
#4 = CARTESIAN_POINT ( 'NONE',  ( 0.0000000000000000000, -1.984375000000004400, -0.3968749999999839400 ) ) ;
#5 = FILL_AREA_STYLE_COLOUR ( '', #10 ) ;
#6 = CARTESIAN_POINT ( 'NONE',  ( 0.0000000000000000000, 0.0000000000000000000, 0.0000000000000000000 ) ) ;
#7 = PRODUCT_DEFINITION_SHAPE ( 'NONE', 'NONE',  #204 ) ;
#8 = FACE_OUTER_BOUND ( 'NONE', #113, .T. ) ;
#9 = PRODUCT_RELATED_PRODUCT_CATEGORY ( 'part', '', ( #89 ) ) ;
#10 = COLOUR_RGB ( '',0.7921568627450980000, 0.8196078431372548800, 0.9333333333333333500 ) ;
#11 = LINE ( 'NONE', #131, #2 ) ;
#12 = CARTESIAN_POINT ( 'NONE',  ( 0.0000000000000000000, 0.0000000000000000000, 0.0000000000000000000 ) ) ;
#13 = EDGE_CURVE ( 'NONE', #191, #57, #207, .T. ) ;
#14 = ORIENTED_EDGE ( 'NONE', *, *, #184, .T. ) ;
#15 = CARTESIAN_POINT ( 'NONE',  ( 0.0000000000000000000, 9.095282933174617700E-018, -80.19695503783413000 ) ) ;
#16 = ORIENTED_EDGE ( 'NONE', *, *, #134, .F. ) ;
#17 = DIRECTION ( 'NONE',  ( -0.0000000000000000000, -1.134118237891174300E-019, 1.000000000000000000 ) ) ;
#18 = SURFACE_STYLE_USAGE ( .BOTH. , #114 ) ;
#19 = DIRECTION ( 'NONE',  ( -0.0000000000000000000, -1.134118237891174300E-019, 1.000000000000000000 ) ) ;
#20 = EDGE_CURVE ( 'NONE', #196, #186, #49, .T. ) ;
#21 = PRODUCT_DEFINITION_CONTEXT ( 'detailed design', #140, 'design' ) ;
#22 = DIRECTION ( 'NONE',  ( 0.0000000000000000000, -0.9238795325112850700, 0.3826834323650937200 ) ) ;
#23 = SURFACE_STYLE_FILL_AREA ( #35 ) ;
#24 = ORIENTED_EDGE ( 'NONE', *, *, #152, .F. ) ;
#25 = APPLICATION_PROTOCOL_DEFINITION ( 'draft international standard', 'automotive_design', 1998, #206 ) ;
#26 = PRODUCT_DEFINITION_FORMATION_WITH_SPECIFIED_SOURCE ( 'ANY', '', #89, .NOT_KNOWN. ) ;
#27 = LINE ( 'NONE', #31, #173 ) ;
#28 = ORIENTED_EDGE ( 'NONE', *, *, #172, .T. ) ;
#29 = CARTESIAN_POINT ( 'NONE',  ( 1.944126793646447000E-016, -1.587500000000019500, 1.212153575387204200E-016 ) ) ;
#30 =( GEOMETRIC_REPRESENTATION_CONTEXT ( 3 ) GLOBAL_UNCERTAINTY_ASSIGNED_CONTEXT ( ( #179 ) ) GLOBAL_UNIT_ASSIGNED_CONTEXT ( ( #187, #121, #205 ) ) REPRESENTATION_CONTEXT ( 'NONE', 'WORKASPACE' ) );
#31 = CARTESIAN_POINT ( 'NONE',  ( 0.0000000000000000000, 1.587500000000019500, 1.215754400792508700E-016 ) ) ;
#32 = ADVANCED_FACE ( 'NONE', ( #181 ), #1, .F. ) ;
#33 = FACE_OUTER_BOUND ( 'NONE', #146, .T. ) ;
#34 = DIRECTION ( 'NONE',  ( -0.0000000000000000000, -1.134118237891174300E-019, 1.000000000000000000 ) ) ;
#35 = FILL_AREA_STYLE ('',( #5 ) ) ;
#36 = ORIENTED_EDGE ( 'NONE', *, *, #184, .F. ) ;
#37 = CARTESIAN_POINT ( 'NONE',  ( 0.0000000000000000000, -1.984375000000008700, -79.37500000000000000 ) ) ;
#38 = ORIENTED_EDGE ( 'NONE', *, *, #180, .F. ) ;
#39 = FACE_OUTER_BOUND ( 'NONE', #95, .T. ) ;
#40 =( NAMED_UNIT ( * ) PLANE_ANGLE_UNIT ( ) SI_UNIT ( $, .RADIAN. ) );
#41 = DIRECTION ( 'NONE',  ( 0.0000000000000000000, 1.134118237891174300E-019, -1.000000000000000000 ) ) ;
#42 = DIRECTION ( 'NONE',  ( 0.0000000000000000000, 1.000000000000000000, 1.134118237891170000E-019 ) ) ;
#43 = CONICAL_SURFACE ( 'NONE', #190, 1.587500000000019500, 0.7853981633974492800 ) ;
#44 = DIRECTION ( 'NONE',  ( -0.0000000000000000000, -1.134118237891174300E-019, 1.000000000000000000 ) ) ;
#45 = ADVANCED_FACE ( 'NONE', ( #101 ), #43, .T. ) ;
#46 = CARTESIAN_POINT ( 'NONE',  ( 2.430158492058039400E-016, 1.984375000000008700, -79.37500000000000000 ) ) ;
#47 = CARTESIAN_POINT ( 'NONE',  ( 0.0000000000000000000, 4.501031756630416100E-020, -0.3968749999999839400 ) ) ;
#48 = AXIS2_PLACEMENT_3D ( 'NONE', #6, #111, #149 ) ;
#49 = CIRCLE ( 'NONE', #68, 1.984375000000009100 ) ;
#50 = ORIENTED_EDGE ( 'NONE', *, *, #120, .T. ) ;
#51 = EDGE_CURVE ( 'NONE', #191, #154, #27, .T. ) ;
#52 = AXIS2_PLACEMENT_3D ( 'NONE', #122, #126, #125 ) ;
#53 =( LENGTH_UNIT ( ) NAMED_UNIT ( * ) SI_UNIT ( .MILLI., .METRE. ) );
#54 = LINE ( 'NONE', #197, #212 ) ;
#55 = ORIENTED_EDGE ( 'NONE', *, *, #85, .T. ) ;
#56 = SURFACE_STYLE_FILL_AREA ( #176 ) ;
#57 = VERTEX_POINT ( 'NONE', #171 ) ;
#58 = AXIS2_PLACEMENT_3D ( 'NONE', #98, #116, #133 ) ;
#59 = CYLINDRICAL_SURFACE ( 'NONE', #58, 1.984375000000004400 ) ;
#60 = EDGE_LOOP ( 'NONE', ( #16, #67, #155, #72 ) ) ;
#61 = DIRECTION ( 'NONE',  ( 0.0000000000000000000, 1.134118237891174300E-019, -1.000000000000000000 ) ) ;
#62 = DIRECTION ( 'NONE',  ( 0.0000000000000000000, -1.000000000000000000, 0.0000000000000000000 ) ) ;
#63 = PRESENTATION_STYLE_ASSIGNMENT (( #153 ) ) ;
#64 =( GEOMETRIC_REPRESENTATION_CONTEXT ( 3 ) GLOBAL_UNCERTAINTY_ASSIGNED_CONTEXT ( ( #142 ) ) GLOBAL_UNIT_ASSIGNED_CONTEXT ( ( #115, #210, #168 ) ) REPRESENTATION_CONTEXT ( 'NONE', 'WORKASPACE' ) );
#65 = DIRECTION ( 'NONE',  ( 0.0000000000000000000, 1.000000000000000000, 0.0000000000000000000 ) ) ;
#66 = ADVANCED_FACE ( 'NONE', ( #8 ), #177, .T. ) ;
#67 = ORIENTED_EDGE ( 'NONE', *, *, #180, .T. ) ;
#68 = AXIS2_PLACEMENT_3D ( 'NONE', #143, #110, #129 ) ;
#69 = ORIENTED_EDGE ( 'NONE', *, *, #172, .F. ) ;
#70 = AXIS2_PLACEMENT_3D ( 'NONE', #80, #44, #195 ) ;
#71 = EDGE_LOOP ( 'NONE', ( #36, #202, #119 ) ) ;
#72 = ORIENTED_EDGE ( 'NONE', *, *, #51, .F. ) ;
#73 = CARTESIAN_POINT ( 'NONE',  ( 2.430158492058034500E-016, 1.984375000000004400, -0.3968749999999839400 ) ) ;
#74 = VECTOR ( 'NONE', #189, 1000.000000000000200 ) ;
#75 =( GEOMETRIC_REPRESENTATION_CONTEXT ( 3 ) GLOBAL_UNCERTAINTY_ASSIGNED_CONTEXT ( ( #100 ) ) GLOBAL_UNIT_ASSIGNED_CONTEXT ( ( #53, #40, #144 ) ) REPRESENTATION_CONTEXT ( 'NONE', 'WORKASPACE' ) );
#76 = LINE ( 'NONE', #29, #156 ) ;
#77 = DIRECTION ( 'NONE',  ( -0.0000000000000000000, -1.134118237891174300E-019, 1.000000000000000000 ) ) ;
#78 = CARTESIAN_POINT ( 'NONE',  ( 0.0000000000000000000, 1.587500000000019500, 1.215754400792508700E-016 ) ) ;
#79 = AXIS2_PLACEMENT_3D ( 'NONE', #135, #81, #174 ) ;
#80 = CARTESIAN_POINT ( 'NONE',  ( 0.0000000000000000000, -1.376767357853432300E-035, 1.213953988089856500E-016 ) ) ;
#81 = DIRECTION ( 'NONE',  ( -0.0000000000000000000, -1.134118237891174300E-019, 1.000000000000000000 ) ) ;
#82 = MECHANICAL_DESIGN_GEOMETRIC_PRESENTATION_REPRESENTATION (  '', ( #188 ), #64 ) ;
#83 = FACE_OUTER_BOUND ( 'NONE', #130, .T. ) ;
#84 = CYLINDRICAL_SURFACE ( 'NONE', #48, 1.984375000000004400 ) ;
#85 = EDGE_CURVE ( 'NONE', #186, #196, #165, .T. ) ;
#86 = ORIENTED_EDGE ( 'NONE', *, *, #132, .T. ) ;
#87 = AXIS2_PLACEMENT_3D ( 'NONE', #157, #61, #127 ) ;
#88 = CONICAL_SURFACE ( 'NONE', #145, 2414.213562373065500, 1.178097245096168200 ) ;
#89 = PRODUCT ( '03-0346', '03-0346', '', ( #92 ) ) ;
#90 = CIRCLE ( 'NONE', #166, 1.984375000000004400 ) ;
#91 = ORIENTED_EDGE ( 'NONE', *, *, #13, .T. ) ;
#92 = PRODUCT_CONTEXT ( 'NONE', #206, 'mechanical' ) ;
#93 = DIRECTION ( 'NONE',  ( 0.0000000000000000000, 1.134118237891174300E-019, -1.000000000000000000 ) ) ;
#94 = ADVANCED_FACE ( 'NONE', ( #83 ), #84, .T. ) ;
#95 = EDGE_LOOP ( 'NONE', ( #183, #55, #201, #28 ) ) ;
#96 = DIRECTION ( 'NONE',  ( -0.0000000000000000000, -1.134118237891174300E-019, 1.000000000000000000 ) ) ;
#97 = AXIS2_PLACEMENT_3D ( 'NONE', #12, #209, #102 ) ;
#98 = CARTESIAN_POINT ( 'NONE',  ( 0.0000000000000000000, 0.0000000000000000000, 0.0000000000000000000 ) ) ;
#99 = CARTESIAN_POINT ( 'NONE',  ( 0.0000000000000000000, 9.095282933174617700E-018, -80.19695503783413000 ) ) ;
#100 = UNCERTAINTY_MEASURE_WITH_UNIT (LENGTH_MEASURE( 1.000000000000000100E-005 ), #53, 'distance_accuracy_value', 'NONE');
#101 = FACE_OUTER_BOUND ( 'NONE', #60, .T. ) ;
#102 = DIRECTION ( 'NONE',  ( 1.000000000000000000, 0.0000000000000000000, 0.0000000000000000000 ) ) ;
#103 = APPLICATION_PROTOCOL_DEFINITION ( 'draft international standard', 'automotive_design', 1998, #140 ) ;
#104 = SHAPE_DEFINITION_REPRESENTATION ( #7, #147 ) ;
#105 = LINE ( 'NONE', #99, #128 ) ;
#106 = ORIENTED_EDGE ( 'NONE', *, *, #20, .T. ) ;
#107 = ADVANCED_FACE ( 'NONE', ( #200 ), #88, .T. ) ;
#108 = AXIS2_PLACEMENT_3D ( 'NONE', #175, #34, #62 ) ;
#109 = DIRECTION ( 'NONE',  ( 0.0000000000000000000, 1.000000000000000000, 1.134118237891170000E-019 ) ) ;
#110 = DIRECTION ( 'NONE',  ( -0.0000000000000000000, -1.134118237891174300E-019, 1.000000000000000000 ) ) ;
#111 = DIRECTION ( 'NONE',  ( -0.0000000000000000000, -1.134118237891174300E-019, 1.000000000000000000 ) ) ;
#112 = ADVANCED_FACE ( 'NONE', ( #39 ), #59, .T. ) ;
#113 = EDGE_LOOP ( 'NONE', ( #38, #164, #208, #69 ) ) ;
#114 = SURFACE_SIDE_STYLE ('',( #23 ) ) ;
#115 =( LENGTH_UNIT ( ) NAMED_UNIT ( * ) SI_UNIT ( .MILLI., .METRE. ) );
#116 = DIRECTION ( 'NONE',  ( -0.0000000000000000000, -1.134118237891174300E-019, 1.000000000000000000 ) ) ;
#117 = EDGE_CURVE ( 'NONE', #196, #136, #54, .T. ) ;
#118 = EDGE_LOOP ( 'NONE', ( #91, #150 ) ) ;
#119 = ORIENTED_EDGE ( 'NONE', *, *, #20, .F. ) ;
#120 = EDGE_CURVE ( 'NONE', #186, #154, #11, .T. ) ;
#121 =( NAMED_UNIT ( * ) PLANE_ANGLE_UNIT ( ) SI_UNIT ( $, .RADIAN. ) );
#122 = CARTESIAN_POINT ( 'NONE',  ( 0.0000000000000000000, -1.376767357853431700E-035, 1.213953988089856500E-016 ) ) ;
#123 = LINE ( 'NONE', #15, #74 ) ;
#124 = AXIS2_PLACEMENT_3D ( 'NONE', #159, #41, #193 ) ;
#125 = DIRECTION ( 'NONE',  ( 0.0000000000000000000, 1.000000000000000000, 1.134118237891170000E-019 ) ) ;
#126 = DIRECTION ( 'NONE',  ( 0.0000000000000000000, 1.134118237891174300E-019, -1.000000000000000000 ) ) ;
#127 = DIRECTION ( 'NONE',  ( 0.0000000000000000000, 1.000000000000000000, 0.0000000000000000000 ) ) ;
#128 = VECTOR ( 'NONE', #22, 1000.000000000000200 ) ;
#129 = DIRECTION ( 'NONE',  ( 0.0000000000000000000, -1.000000000000000000, 0.0000000000000000000 ) ) ;
#130 = EDGE_LOOP ( 'NONE', ( #106, #50, #86, #160 ) ) ;
#131 = CARTESIAN_POINT ( 'NONE',  ( 2.430158492058034500E-016, 1.984375000000004400, 2.250515878315304200E-019 ) ) ;
#132 = EDGE_CURVE ( 'NONE', #154, #136, #90, .T. ) ;
#133 = DIRECTION ( 'NONE',  ( 0.0000000000000000000, -1.000000000000000000, -1.134118237891174300E-019 ) ) ;
#134 = EDGE_CURVE ( 'NONE', #57, #191, #163, .T. ) ;
#135 = CARTESIAN_POINT ( 'NONE',  ( 0.0000000000000000000, -1.043165408559428200E-016, 919.8030449621659300 ) ) ;
#136 = VERTEX_POINT ( 'NONE', #4 ) ;
#137 = MANIFOLD_SOLID_BREP ( '¸ðµû±â1', #170 ) ;
#138 = CONICAL_SURFACE ( 'NONE', #79, 2414.213562373065500, 1.178097245096168200 ) ;
#139 = VERTEX_POINT ( 'NONE', #178 ) ;
#140 = APPLICATION_CONTEXT ( 'automotive_design' ) ;
#141 = MECHANICAL_DESIGN_GEOMETRIC_PRESENTATION_REPRESENTATION (  '', ( #211 ), #30 ) ;
#142 = UNCERTAINTY_MEASURE_WITH_UNIT (LENGTH_MEASURE( 1.000000000000000100E-005 ), #115, 'distance_accuracy_value', 'NONE');
#143 = CARTESIAN_POINT ( 'NONE',  ( 0.0000000000000000000, 9.002063513261196500E-018, -79.37500000000000000 ) ) ;
#144 =( NAMED_UNIT ( * ) SI_UNIT ( $, .STERADIAN. ) SOLID_ANGLE_UNIT ( ) );
#145 = AXIS2_PLACEMENT_3D ( 'NONE', #148, #96, #199 ) ;
#146 = EDGE_LOOP ( 'NONE', ( #24, #14, #169 ) ) ;
#147 = ADVANCED_BREP_SHAPE_REPRESENTATION ( '03-0346', ( #137, #97 ), #75 ) ;
#148 = CARTESIAN_POINT ( 'NONE',  ( 0.0000000000000000000, -1.043165408559428200E-016, 919.8030449621659300 ) ) ;
#149 = DIRECTION ( 'NONE',  ( 0.0000000000000000000, -1.000000000000000000, -1.134118237891174300E-019 ) ) ;
#150 = ORIENTED_EDGE ( 'NONE', *, *, #134, .T. ) ;
#151 = FILL_AREA_STYLE_COLOUR ( '', #182 ) ;
#152 = EDGE_CURVE ( 'NONE', #139, #186, #123, .T. ) ;
#153 = SURFACE_STYLE_USAGE ( .BOTH. , #167 ) ;
#154 = VERTEX_POINT ( 'NONE', #73 ) ;
#155 = ORIENTED_EDGE ( 'NONE', *, *, #132, .F. ) ;
#156 = VECTOR ( 'NONE', #158, 1000.000000000000000 ) ;
#157 = CARTESIAN_POINT ( 'NONE',  ( 0.0000000000000000000, 4.501031756630416100E-020, -0.3968749999999839400 ) ) ;
#158 = DIRECTION ( 'NONE',  ( 8.659560562354944000E-017, -0.7071067811865483500, -0.7071067811865468000 ) ) ;
#159 = CARTESIAN_POINT ( 'NONE',  ( 0.0000000000000000000, 1.984374999999999600, 1.216204503968171600E-016 ) ) ;
#160 = ORIENTED_EDGE ( 'NONE', *, *, #117, .F. ) ;
#161 = DIRECTION ( 'NONE',  ( 0.0000000000000000000, 1.134118237891174300E-019, -1.000000000000000000 ) ) ;
#162 = PRESENTATION_LAYER_ASSIGNMENT (  '', '', ( #211 ) ) ;
#163 = CIRCLE ( 'NONE', #70, 1.587500000000019500 ) ;
#164 = ORIENTED_EDGE ( 'NONE', *, *, #13, .F. ) ;
#165 = CIRCLE ( 'NONE', #108, 1.984375000000009100 ) ;
#166 = AXIS2_PLACEMENT_3D ( 'NONE', #47, #161, #65 ) ;
#167 = SURFACE_SIDE_STYLE ('',( #56 ) ) ;
#168 =( NAMED_UNIT ( * ) SI_UNIT ( $, .STERADIAN. ) SOLID_ANGLE_UNIT ( ) );
#169 = ORIENTED_EDGE ( 'NONE', *, *, #85, .F. ) ;
#170 = CLOSED_SHELL ( 'NONE', ( #45, #94, #107, #32, #194, #112, #66 ) ) ;
#171 = CARTESIAN_POINT ( 'NONE',  ( 2.187142642852240800E-016, -1.587500000000019500, 1.212153575387204200E-016 ) ) ;
#172 = EDGE_CURVE ( 'NONE', #136, #154, #203, .T. ) ;
#173 = VECTOR ( 'NONE', #3, 1000.000000000000000 ) ;
#174 = DIRECTION ( 'NONE',  ( 0.0000000000000000000, -1.000000000000000000, 0.0000000000000000000 ) ) ;
#175 = CARTESIAN_POINT ( 'NONE',  ( 0.0000000000000000000, 9.002063513261196500E-018, -79.37500000000000000 ) ) ;
#176 = FILL_AREA_STYLE ('',( #151 ) ) ;
#177 = CONICAL_SURFACE ( 'NONE', #52, 1.587500000000019500, 0.7853981633974492800 ) ;
#178 = CARTESIAN_POINT ( 'NONE',  ( 0.0000000000000000000, 9.095282933174617700E-018, -80.19695503783413000 ) ) ;
#179 = UNCERTAINTY_MEASURE_WITH_UNIT (LENGTH_MEASURE( 1.000000000000000100E-005 ), #187, 'distance_accuracy_value', 'NONE');
#180 = EDGE_CURVE ( 'NONE', #57, #136, #76, .T. ) ;
#181 = FACE_OUTER_BOUND ( 'NONE', #118, .T. ) ;
#182 = COLOUR_RGB ( '',0.7921568627450980000, 0.8196078431372548800, 0.9333333333333333500 ) ;
#183 = ORIENTED_EDGE ( 'NONE', *, *, #120, .F. ) ;
#184 = EDGE_CURVE ( 'NONE', #139, #196, #105, .T. ) ;
#185 = PRESENTATION_STYLE_ASSIGNMENT (( #18 ) ) ;
#186 = VERTEX_POINT ( 'NONE', #46 ) ;
#187 =( LENGTH_UNIT ( ) NAMED_UNIT ( * ) SI_UNIT ( .MILLI., .METRE. ) );
#188 = STYLED_ITEM ( 'NONE', ( #185 ), #137 ) ;
#189 = DIRECTION ( 'NONE',  ( 1.131426112287698300E-016, 0.9238795325112850700, 0.3826834323650937200 ) ) ;
#190 = AXIS2_PLACEMENT_3D ( 'NONE', #192, #93, #42 ) ;
#191 = VERTEX_POINT ( 'NONE', #78 ) ;
#192 = CARTESIAN_POINT ( 'NONE',  ( 0.0000000000000000000, -1.376767357853431700E-035, 1.213953988089856500E-016 ) ) ;
#193 = DIRECTION ( 'NONE',  ( 0.0000000000000000000, 1.000000000000000000, 1.134118237891174300E-019 ) ) ;
#194 = ADVANCED_FACE ( 'NONE', ( #33 ), #138, .T. ) ;
#195 = DIRECTION ( 'NONE',  ( 0.0000000000000000000, 1.000000000000000000, 1.134118237891170000E-019 ) ) ;
#196 = VERTEX_POINT ( 'NONE', #37 ) ;
#197 = CARTESIAN_POINT ( 'NONE',  ( 0.0000000000000000000, -1.984375000000004400, -2.250515878315304200E-019 ) ) ;
#198 = AXIS2_PLACEMENT_3D ( 'NONE', #213, #77, #109 ) ;
#199 = DIRECTION ( 'NONE',  ( 0.0000000000000000000, -1.000000000000000000, 0.0000000000000000000 ) ) ;
#200 = FACE_OUTER_BOUND ( 'NONE', #71, .T. ) ;
#201 = ORIENTED_EDGE ( 'NONE', *, *, #117, .T. ) ;
#202 = ORIENTED_EDGE ( 'NONE', *, *, #152, .T. ) ;
#203 = CIRCLE ( 'NONE', #87, 1.984375000000004400 ) ;
#204 = PRODUCT_DEFINITION ( 'UNKNOWN', '', #26, #21 ) ;
#205 =( NAMED_UNIT ( * ) SI_UNIT ( $, .STERADIAN. ) SOLID_ANGLE_UNIT ( ) );
#206 = APPLICATION_CONTEXT ( 'automotive_design' ) ;
#207 = CIRCLE ( 'NONE', #198, 1.587500000000019500 ) ;
#208 = ORIENTED_EDGE ( 'NONE', *, *, #51, .T. ) ;
#209 = DIRECTION ( 'NONE',  ( 0.0000000000000000000, 0.0000000000000000000, 1.000000000000000000 ) ) ;
#210 =( NAMED_UNIT ( * ) PLANE_ANGLE_UNIT ( ) SI_UNIT ( $, .RADIAN. ) );
#211 = STYLED_ITEM ( 'NONE', ( #63 ), #147 ) ;
#212 = VECTOR ( 'NONE', #17, 1000.000000000000000 ) ;
#213 = CARTESIAN_POINT ( 'NONE',  ( 0.0000000000000000000, -1.376767357853432300E-035, 1.213953988089856500E-016 ) ) ;
#214 = PRESENTATION_LAYER_ASSIGNMENT (  '', '', ( #188 ) ) ;
ENDSEC;
END-ISO-10303-21;
