ISO-10303-21;
HEADER;
FILE_DESCRIPTION (( 'STEP AP214' ),
    '1' );
FILE_NAME ('03-0347.STEP',
    '2020-07-23T07:01:28',
    ( '' ),
    ( '' ),
    'SwSTEP 2.0',
    'SolidWorks 2014',
    '' );
FILE_SCHEMA (( 'AUTOMOTIVE_DESIGN' ));
ENDSEC;

DATA;
#1 = ORIENTED_EDGE ( 'NONE', *, *, #107, .T. ) ;
#2 = CARTESIAN_POINT ( 'NONE',  ( 0.0000000000000000000, 0.0000000000000000000, 0.0000000000000000000 ) ) ;
#3 = CIRCLE ( 'NONE', #42, 2.182812500000010500 ) ;
#4 = CARTESIAN_POINT ( 'NONE',  ( 9.213218522561986100E-050, 5.167266382081423600E-018, -83.45415054161753700 ) ) ;
#5 = EDGE_CURVE ( 'NONE', #185, #141, #105, .T. ) ;
#6 = FACE_OUTER_BOUND ( 'NONE', #116, .T. ) ;
#7 = ORIENTED_EDGE ( 'NONE', *, *, #72, .F. ) ;
#8 = DIRECTION ( 'NONE',  ( 0.0000000000000000000, -0.9238795325112853000, 0.3826834323650930600 ) ) ;
#9 = CARTESIAN_POINT ( 'NONE',  ( 0.0000000000000000000, -5.675016191292677400E-017, 916.5458494583824600 ) ) ;
#10 = CARTESIAN_POINT ( 'NONE',  ( 2.138539473011054500E-016, -1.746249999999991000, 1.334830166858063100E-016 ) ) ;
#11 = FACE_OUTER_BOUND ( 'NONE', #192, .T. ) ;
#12 =( NAMED_UNIT ( * ) SI_UNIT ( $, .STERADIAN. ) SOLID_ANGLE_UNIT ( ) );
#13 = DIRECTION ( 'NONE',  ( 1.000000000000000000, 0.0000000000000000000, 0.0000000000000000000 ) ) ;
#14 =( LENGTH_UNIT ( ) NAMED_UNIT ( * ) SI_UNIT ( .MILLI., .METRE. ) );
#15 = FACE_OUTER_BOUND ( 'NONE', #39, .T. ) ;
#16 = ORIENTED_EDGE ( 'NONE', *, *, #5, .F. ) ;
#17 = FACE_OUTER_BOUND ( 'NONE', #151, .T. ) ;
#18 = VECTOR ( 'NONE', #117, 1000.000000000000100 ) ;
#19 = EDGE_CURVE ( 'NONE', #74, #187, #197, .T. ) ;
#20 = CARTESIAN_POINT ( 'NONE',  ( 0.0000000000000000000, 2.182812499999999800, 1.337262941314166700E-016 ) ) ;
#21 = PRODUCT_DEFINITION_SHAPE ( 'NONE', 'NONE',  #148 ) ;
#22 = COLOUR_RGB ( '',0.7921568627450980000, 0.8196078431372548800, 0.9333333333333333500 ) ;
#23 = CARTESIAN_POINT ( 'NONE',  ( 2.405856907137446500E-016, -1.746249999999991000, 1.334830166858063100E-016 ) ) ;
#24 = DIRECTION ( 'NONE',  ( 0.0000000000000000000, 6.191742829500819500E-020, -1.000000000000000000 ) ) ;
#25 =( LENGTH_UNIT ( ) NAMED_UNIT ( * ) SI_UNIT ( .MILLI., .METRE. ) );
#26 = SURFACE_SIDE_STYLE ('',( #186 ) ) ;
#27 = APPLICATION_CONTEXT ( 'automotive_design' ) ;
#28 = LINE ( 'NONE', #106, #127 ) ;
#29 = ORIENTED_EDGE ( 'NONE', *, *, #32, .F. ) ;
#30 = ADVANCED_BREP_SHAPE_REPRESENTATION ( '03-0347', ( #166, #89 ), #71 ) ;
#31 =( GEOMETRIC_REPRESENTATION_CONTEXT ( 3 ) GLOBAL_UNCERTAINTY_ASSIGNED_CONTEXT ( ( #49 ) ) GLOBAL_UNIT_ASSIGNED_CONTEXT ( ( #25, #147, #156 ) ) REPRESENTATION_CONTEXT ( 'NONE', 'WORKASPACE' ) );
#32 = EDGE_CURVE ( 'NONE', #190, #185, #56, .T. ) ;
#33 = ORIENTED_EDGE ( 'NONE', *, *, #167, .T. ) ;
#34 = DIRECTION ( 'NONE',  ( 0.0000000000000000000, 1.000000000000000000, 0.0000000000000000000 ) ) ;
#35 = CARTESIAN_POINT ( 'NONE',  ( 0.0000000000000000000, 2.703082729004054600E-020, -0.4365625000000166700 ) ) ;
#36 = EDGE_CURVE ( 'NONE', #163, #187, #98, .T. ) ;
#37 = PRESENTATION_LAYER_ASSIGNMENT (  '', '', ( #180 ) ) ;
#38 = FILL_AREA_STYLE ('',( #108 ) ) ;
#39 = EDGE_LOOP ( 'NONE', ( #7, #138, #1, #175 ) ) ;
#40 = DIRECTION ( 'NONE',  ( 0.0000000000000000000, 1.000000000000000000, 0.0000000000000000000 ) ) ;
#41 = DIRECTION ( 'NONE',  ( 0.0000000000000000000, 6.191742829500819500E-020, -1.000000000000000000 ) ) ;
#42 = AXIS2_PLACEMENT_3D ( 'NONE', #193, #126, #123 ) ;
#43 = DIRECTION ( 'NONE',  ( 0.0000000000000000000, 0.0000000000000000000, 1.000000000000000000 ) ) ;
#44 = PRESENTATION_STYLE_ASSIGNMENT (( #145 ) ) ;
#45 = ORIENTED_EDGE ( 'NONE', *, *, #36, .F. ) ;
#46 = PRODUCT ( '03-0347', '03-0347', '', ( #96 ) ) ;
#47 = ADVANCED_FACE ( 'NONE', ( #65 ), #119, .F. ) ;
#48 = APPLICATION_CONTEXT ( 'automotive_design' ) ;
#49 = UNCERTAINTY_MEASURE_WITH_UNIT (LENGTH_MEASURE( 1.000000000000000100E-005 ), #25, 'distance_accuracy_value', 'NONE');
#50 = MECHANICAL_DESIGN_GEOMETRIC_PRESENTATION_REPRESENTATION (  '', ( #180 ), #31 ) ;
#51 = ORIENTED_EDGE ( 'NONE', *, *, #101, .F. ) ;
#52 = PRESENTATION_STYLE_ASSIGNMENT (( #164 ) ) ;
#53 = ORIENTED_EDGE ( 'NONE', *, *, #115, .F. ) ;
#54 = DIRECTION ( 'NONE',  ( 0.0000000000000000000, -1.000000000000000000, -6.191742829500819500E-020 ) ) ;
#55 = CIRCLE ( 'NONE', #118, 2.182812500000005200 ) ;
#56 = LINE ( 'NONE', #70, #188 ) ;
#57 = CARTESIAN_POINT ( 'NONE',  ( 0.0000000000000000000, 1.746249999999991000, 1.336992633041266100E-016 ) ) ;
#58 = AXIS2_PLACEMENT_3D ( 'NONE', #9, #172, #174 ) ;
#59 = DIRECTION ( 'NONE',  ( 0.0000000000000000000, 1.000000000000000000, 6.191742829500259800E-020 ) ) ;
#60 = LINE ( 'NONE', #10, #73 ) ;
#61 = ADVANCED_FACE ( 'NONE', ( #15 ), #64, .T. ) ;
#62 = DIRECTION ( 'NONE',  ( 0.0000000000000000000, 1.000000000000000000, 6.191742829500259800E-020 ) ) ;
#63 = UNCERTAINTY_MEASURE_WITH_UNIT (LENGTH_MEASURE( 1.000000000000000100E-005 ), #14, 'distance_accuracy_value', 'NONE');
#64 = CYLINDRICAL_SURFACE ( 'NONE', #124, 2.182812500000005200 ) ;
#65 = FACE_OUTER_BOUND ( 'NONE', #99, .T. ) ;
#66 = EDGE_CURVE ( 'NONE', #187, #74, #3, .T. ) ;
#67 = FACE_OUTER_BOUND ( 'NONE', #205, .T. ) ;
#68 = EDGE_CURVE ( 'NONE', #141, #185, #55, .T. ) ;
#69 = CLOSED_SHELL ( 'NONE', ( #109, #88, #210, #47, #196, #61, #129 ) ) ;
#70 = CARTESIAN_POINT ( 'NONE',  ( 0.0000000000000000000, 1.746249999999991000, 1.336992633041266100E-016 ) ) ;
#71 =( GEOMETRIC_REPRESENTATION_CONTEXT ( 3 ) GLOBAL_UNCERTAINTY_ASSIGNED_CONTEXT ( ( #63 ) ) GLOBAL_UNIT_ASSIGNED_CONTEXT ( ( #14, #183, #94 ) ) REPRESENTATION_CONTEXT ( 'NONE', 'WORKASPACE' ) );
#72 = EDGE_CURVE ( 'NONE', #187, #185, #199, .T. ) ;
#73 = VECTOR ( 'NONE', #160, 1000.000000000000100 ) ;
#74 = VERTEX_POINT ( 'NONE', #75 ) ;
#75 = CARTESIAN_POINT ( 'NONE',  ( 0.0000000000000000000, -2.182812500000010000, -82.54999999999999700 ) ) ;
#76 = CARTESIAN_POINT ( 'NONE',  ( 0.0000000000000000000, -2.182812500000005200, -1.351541364501979000E-019 ) ) ;
#77 = CONICAL_SURFACE ( 'NONE', #173, 2414.213562373070500, 1.178097245096168900 ) ;
#78 = SURFACE_SIDE_STYLE ('',( #114 ) ) ;
#79 = ORIENTED_EDGE ( 'NONE', *, *, #72, .T. ) ;
#80 =( LENGTH_UNIT ( ) NAMED_UNIT ( * ) SI_UNIT ( .MILLI., .METRE. ) );
#81 = LINE ( 'NONE', #76, #170 ) ;
#82 = ORIENTED_EDGE ( 'NONE', *, *, #5, .T. ) ;
#83 =( GEOMETRIC_REPRESENTATION_CONTEXT ( 3 ) GLOBAL_UNCERTAINTY_ASSIGNED_CONTEXT ( ( #169 ) ) GLOBAL_UNIT_ASSIGNED_CONTEXT ( ( #80, #113, #12 ) ) REPRESENTATION_CONTEXT ( 'NONE', 'WORKASPACE' ) );
#84 = DIRECTION ( 'NONE',  ( 0.0000000000000000000, -1.000000000000000000, 0.0000000000000000000 ) ) ;
#85 = CONICAL_SURFACE ( 'NONE', #142, 1.746249999999991000, 0.7853981633974452800 ) ;
#86 = ORIENTED_EDGE ( 'NONE', *, *, #115, .T. ) ;
#87 = CARTESIAN_POINT ( 'NONE',  ( 0.0000000000000000000, -8.271619831486737900E-036, 1.335911399949664600E-016 ) ) ;
#88 = ADVANCED_FACE ( 'NONE', ( #135 ), #104, .T. ) ;
#89 = AXIS2_PLACEMENT_3D ( 'NONE', #165, #43, #13 ) ;
#90 = DIRECTION ( 'NONE',  ( -0.0000000000000000000, -6.191742829500819500E-020, 1.000000000000000000 ) ) ;
#91 = DIRECTION ( 'NONE',  ( 0.0000000000000000000, 6.191742829500819500E-020, -1.000000000000000000 ) ) ;
#92 = CARTESIAN_POINT ( 'NONE',  ( 0.0000000000000000000, -2.182812500000005200, -0.4365625000000166700 ) ) ;
#93 = CIRCLE ( 'NONE', #122, 1.746249999999991000 ) ;
#94 =( NAMED_UNIT ( * ) SI_UNIT ( $, .STERADIAN. ) SOLID_ANGLE_UNIT ( ) );
#95 = ORIENTED_EDGE ( 'NONE', *, *, #101, .T. ) ;
#96 = PRODUCT_CONTEXT ( 'NONE', #48, 'mechanical' ) ;
#97 = VERTEX_POINT ( 'NONE', #23 ) ;
#98 = LINE ( 'NONE', #4, #18 ) ;
#99 = EDGE_LOOP ( 'NONE', ( #86, #201 ) ) ;
#100 = DIRECTION ( 'NONE',  ( 0.0000000000000000000, 0.7071067811865454600, -0.7071067811865496800 ) ) ;
#101 = EDGE_CURVE ( 'NONE', #97, #141, #60, .T. ) ;
#102 = CONICAL_SURFACE ( 'NONE', #58, 2414.213562373070500, 1.178097245096168900 ) ;
#103 = AXIS2_PLACEMENT_3D ( 'NONE', #157, #90, #177 ) ;
#104 = CYLINDRICAL_SURFACE ( 'NONE', #103, 2.182812500000005200 ) ;
#105 = CIRCLE ( 'NONE', #176, 2.182812500000005200 ) ;
#106 = CARTESIAN_POINT ( 'NONE',  ( 0.0000000000000000000, 5.167266382081422000E-018, -83.45415054161753700 ) ) ;
#107 = EDGE_CURVE ( 'NONE', #74, #141, #81, .T. ) ;
#108 = FILL_AREA_STYLE_COLOUR ( '', #159 ) ;
#109 = ADVANCED_FACE ( 'NONE', ( #67 ), #200, .T. ) ;
#110 = DIRECTION ( 'NONE',  ( 0.0000000000000000000, 1.000000000000000000, 6.191742829500259800E-020 ) ) ;
#111 = FILL_AREA_STYLE_COLOUR ( '', #22 ) ;
#112 = DIRECTION ( 'NONE',  ( 0.0000000000000000000, 1.000000000000000000, 6.191742829500259800E-020 ) ) ;
#113 =( NAMED_UNIT ( * ) PLANE_ANGLE_UNIT ( ) SI_UNIT ( $, .RADIAN. ) );
#114 = SURFACE_STYLE_FILL_AREA ( #38 ) ;
#115 = EDGE_CURVE ( 'NONE', #190, #97, #153, .T. ) ;
#116 = EDGE_LOOP ( 'NONE', ( #133, #143, #184 ) ) ;
#117 = DIRECTION ( 'NONE',  ( 1.131426112287698500E-016, 0.9238795325112853000, 0.3826834323650930600 ) ) ;
#118 = AXIS2_PLACEMENT_3D ( 'NONE', #191, #41, #40 ) ;
#119 = PLANE ( 'NONE',  #140 ) ;
#120 = PRESENTATION_LAYER_ASSIGNMENT (  '', '', ( #211 ) ) ;
#121 = CARTESIAN_POINT ( 'NONE',  ( 2.673174341263844100E-016, 2.182812500000010000, -82.54999999999999700 ) ) ;
#122 = AXIS2_PLACEMENT_3D ( 'NONE', #132, #149, #62 ) ;
#123 = DIRECTION ( 'NONE',  ( 0.0000000000000000000, -1.000000000000000000, 0.0000000000000000000 ) ) ;
#124 = AXIS2_PLACEMENT_3D ( 'NONE', #2, #155, #54 ) ;
#125 = FILL_AREA_STYLE ('',( #111 ) ) ;
#126 = DIRECTION ( 'NONE',  ( -0.0000000000000000000, -6.191742829500819500E-020, 1.000000000000000000 ) ) ;
#127 = VECTOR ( 'NONE', #8, 1000.000000000000100 ) ;
#128 = ORIENTED_EDGE ( 'NONE', *, *, #107, .F. ) ;
#129 = ADVANCED_FACE ( 'NONE', ( #11 ), #85, .T. ) ;
#130 = APPLICATION_PROTOCOL_DEFINITION ( 'draft international standard', 'automotive_design', 1998, #48 ) ;
#131 = AXIS2_PLACEMENT_3D ( 'NONE', #146, #24, #112 ) ;
#132 = CARTESIAN_POINT ( 'NONE',  ( 0.0000000000000000000, -8.271619831486736600E-036, 1.335911399949664600E-016 ) ) ;
#133 = ORIENTED_EDGE ( 'NONE', *, *, #167, .F. ) ;
#134 = PRODUCT_DEFINITION_CONTEXT ( 'detailed design', #27, 'design' ) ;
#135 = FACE_OUTER_BOUND ( 'NONE', #152, .T. ) ;
#136 = ORIENTED_EDGE ( 'NONE', *, *, #202, .F. ) ;
#137 = DIRECTION ( 'NONE',  ( 0.0000000000000000000, 6.191742829500819500E-020, -1.000000000000000000 ) ) ;
#138 = ORIENTED_EDGE ( 'NONE', *, *, #66, .T. ) ;
#139 = DIRECTION ( 'NONE',  ( 0.0000000000000000000, 1.000000000000000000, 6.191742829500819500E-020 ) ) ;
#140 = AXIS2_PLACEMENT_3D ( 'NONE', #20, #203, #139 ) ;
#141 = VERTEX_POINT ( 'NONE', #92 ) ;
#142 = AXIS2_PLACEMENT_3D ( 'NONE', #87, #91, #110 ) ;
#143 = ORIENTED_EDGE ( 'NONE', *, *, #36, .T. ) ;
#144 = ORIENTED_EDGE ( 'NONE', *, *, #32, .T. ) ;
#145 = SURFACE_STYLE_USAGE ( .BOTH. , #26 ) ;
#146 = CARTESIAN_POINT ( 'NONE',  ( 0.0000000000000000000, -8.271619831486737900E-036, 1.335911399949664600E-016 ) ) ;
#147 =( NAMED_UNIT ( * ) PLANE_ANGLE_UNIT ( ) SI_UNIT ( $, .RADIAN. ) );
#148 = PRODUCT_DEFINITION ( 'UNKNOWN', '', #154, #134 ) ;
#149 = DIRECTION ( 'NONE',  ( -0.0000000000000000000, -6.191742829500819500E-020, 1.000000000000000000 ) ) ;
#150 = DIRECTION ( 'NONE',  ( 0.0000000000000000000, -1.000000000000000000, 0.0000000000000000000 ) ) ;
#151 = EDGE_LOOP ( 'NONE', ( #45, #33, #213 ) ) ;
#152 = EDGE_LOOP ( 'NONE', ( #171, #79, #82, #128 ) ) ;
#153 = CIRCLE ( 'NONE', #182, 1.746249999999991000 ) ;
#154 = PRODUCT_DEFINITION_FORMATION_WITH_SPECIFIED_SOURCE ( 'ANY', '', #46, .NOT_KNOWN. ) ;
#155 = DIRECTION ( 'NONE',  ( -0.0000000000000000000, -6.191742829500819500E-020, 1.000000000000000000 ) ) ;
#156 =( NAMED_UNIT ( * ) SI_UNIT ( $, .STERADIAN. ) SOLID_ANGLE_UNIT ( ) );
#157 = CARTESIAN_POINT ( 'NONE',  ( 0.0000000000000000000, 0.0000000000000000000, 0.0000000000000000000 ) ) ;
#158 = CARTESIAN_POINT ( 'NONE',  ( 0.0000000000000000000, -8.271619831486736600E-036, 1.335911399949664600E-016 ) ) ;
#159 = COLOUR_RGB ( '',0.7921568627450980000, 0.8196078431372548800, 0.9333333333333333500 ) ;
#160 = DIRECTION ( 'NONE',  ( 8.659560562354908200E-017, -0.7071067811865454600, -0.7071067811865496800 ) ) ;
#161 = APPLICATION_PROTOCOL_DEFINITION ( 'draft international standard', 'automotive_design', 1998, #27 ) ;
#162 = CARTESIAN_POINT ( 'NONE',  ( 0.0000000000000000000, -5.675016191292677400E-017, 916.5458494583824600 ) ) ;
#163 = VERTEX_POINT ( 'NONE', #207 ) ;
#164 = SURFACE_STYLE_USAGE ( .BOTH. , #78 ) ;
#165 = CARTESIAN_POINT ( 'NONE',  ( 0.0000000000000000000, 0.0000000000000000000, 0.0000000000000000000 ) ) ;
#166 = MANIFOLD_SOLID_BREP ( '¸ðµû±â1', #69 ) ;
#167 = EDGE_CURVE ( 'NONE', #163, #74, #28, .T. ) ;
#168 = CARTESIAN_POINT ( 'NONE',  ( 0.0000000000000000000, 5.111283705752926400E-018, -82.54999999999999700 ) ) ;
#169 = UNCERTAINTY_MEASURE_WITH_UNIT (LENGTH_MEASURE( 1.000000000000000100E-005 ), #80, 'distance_accuracy_value', 'NONE');
#170 = VECTOR ( 'NONE', #195, 1000.000000000000000 ) ;
#171 = ORIENTED_EDGE ( 'NONE', *, *, #19, .T. ) ;
#172 = DIRECTION ( 'NONE',  ( -0.0000000000000000000, -6.191742829500819500E-020, 1.000000000000000000 ) ) ;
#173 = AXIS2_PLACEMENT_3D ( 'NONE', #162, #212, #150 ) ;
#174 = DIRECTION ( 'NONE',  ( 0.0000000000000000000, -1.000000000000000000, 0.0000000000000000000 ) ) ;
#175 = ORIENTED_EDGE ( 'NONE', *, *, #68, .T. ) ;
#176 = AXIS2_PLACEMENT_3D ( 'NONE', #35, #137, #34 ) ;
#177 = DIRECTION ( 'NONE',  ( 0.0000000000000000000, -1.000000000000000000, -6.191742829500819500E-020 ) ) ;
#178 = DIRECTION ( 'NONE',  ( -0.0000000000000000000, -6.191742829500819500E-020, 1.000000000000000000 ) ) ;
#179 = DIRECTION ( 'NONE',  ( -0.0000000000000000000, -6.191742829500819500E-020, 1.000000000000000000 ) ) ;
#180 = STYLED_ITEM ( 'NONE', ( #44 ), #166 ) ;
#181 = ORIENTED_EDGE ( 'NONE', *, *, #68, .F. ) ;
#182 = AXIS2_PLACEMENT_3D ( 'NONE', #158, #179, #59 ) ;
#183 =( NAMED_UNIT ( * ) PLANE_ANGLE_UNIT ( ) SI_UNIT ( $, .RADIAN. ) );
#184 = ORIENTED_EDGE ( 'NONE', *, *, #19, .F. ) ;
#185 = VERTEX_POINT ( 'NONE', #206 ) ;
#186 = SURFACE_STYLE_FILL_AREA ( #125 ) ;
#187 = VERTEX_POINT ( 'NONE', #121 ) ;
#188 = VECTOR ( 'NONE', #100, 1000.000000000000100 ) ;
#189 = DIRECTION ( 'NONE',  ( -0.0000000000000000000, -6.191742829500819500E-020, 1.000000000000000000 ) ) ;
#190 = VERTEX_POINT ( 'NONE', #57 ) ;
#191 = CARTESIAN_POINT ( 'NONE',  ( 0.0000000000000000000, 2.703082729004054600E-020, -0.4365625000000166700 ) ) ;
#192 = EDGE_LOOP ( 'NONE', ( #51, #53, #144, #181 ) ) ;
#193 = CARTESIAN_POINT ( 'NONE',  ( 0.0000000000000000000, 5.111283705752926400E-018, -82.54999999999999700 ) ) ;
#194 = MECHANICAL_DESIGN_GEOMETRIC_PRESENTATION_REPRESENTATION (  '', ( #211 ), #83 ) ;
#195 = DIRECTION ( 'NONE',  ( -0.0000000000000000000, -6.191742829500819500E-020, 1.000000000000000000 ) ) ;
#196 = ADVANCED_FACE ( 'NONE', ( #17 ), #102, .T. ) ;
#197 = CIRCLE ( 'NONE', #214, 2.182812500000010500 ) ;
#198 = PRODUCT_RELATED_PRODUCT_CATEGORY ( 'part', '', ( #46 ) ) ;
#199 = LINE ( 'NONE', #209, #208 ) ;
#200 = CONICAL_SURFACE ( 'NONE', #131, 1.746249999999991000, 0.7853981633974452800 ) ;
#201 = ORIENTED_EDGE ( 'NONE', *, *, #202, .T. ) ;
#202 = EDGE_CURVE ( 'NONE', #97, #190, #93, .T. ) ;
#203 = DIRECTION ( 'NONE',  ( 0.0000000000000000000, 6.191742829500819500E-020, -1.000000000000000000 ) ) ;
#204 = SHAPE_DEFINITION_REPRESENTATION ( #21, #30 ) ;
#205 = EDGE_LOOP ( 'NONE', ( #136, #95, #16, #29 ) ) ;
#206 = CARTESIAN_POINT ( 'NONE',  ( 2.673174341263838200E-016, 2.182812500000005200, -0.4365625000000166700 ) ) ;
#207 = CARTESIAN_POINT ( 'NONE',  ( 0.0000000000000000000, 5.167266382081423600E-018, -83.45415054161753700 ) ) ;
#208 = VECTOR ( 'NONE', #178, 1000.000000000000000 ) ;
#209 = CARTESIAN_POINT ( 'NONE',  ( 2.673174341263838200E-016, 2.182812500000005200, 1.351541364501979000E-019 ) ) ;
#210 = ADVANCED_FACE ( 'NONE', ( #6 ), #77, .T. ) ;
#211 = STYLED_ITEM ( 'NONE', ( #52 ), #30 ) ;
#212 = DIRECTION ( 'NONE',  ( -0.0000000000000000000, -6.191742829500819500E-020, 1.000000000000000000 ) ) ;
#213 = ORIENTED_EDGE ( 'NONE', *, *, #66, .F. ) ;
#214 = AXIS2_PLACEMENT_3D ( 'NONE', #168, #189, #84 ) ;
ENDSEC;
END-ISO-10303-21;
