ISO-10303-21;
HEADER;
FILE_DESCRIPTION (( 'STEP AP214' ),
    '1' );
FILE_NAME ('03-0348.STEP',
    '2020-07-23T07:02:09',
    ( '' ),
    ( '' ),
    'SwSTEP 2.0',
    'SolidWorks 2014',
    '' );
FILE_SCHEMA (( 'AUTOMOTIVE_DESIGN' ));
ENDSEC;

DATA;
#1 = CIRCLE ( 'NONE', #66, 1.905000000000003800 ) ;
#2 = CARTESIAN_POINT ( 'NONE',  ( 0.0000000000000000000, 2.381250000000000100, 1.456521628492669700E-016 ) ) ;
#3 = FACE_OUTER_BOUND ( 'NONE', #35, .T. ) ;
#4 = CARTESIAN_POINT ( 'NONE',  ( 0.0000000000000000000, 1.929020419384901500E-035, 1.459668561976966300E-016 ) ) ;
#5 = DIRECTION ( 'NONE',  ( 0.0000000000000000000, 1.000000000000000000, 0.0000000000000000000 ) ) ;
#6 = PRODUCT_RELATED_PRODUCT_CATEGORY ( 'part', '', ( #150 ) ) ;
#7 = DIRECTION ( 'NONE',  ( -0.0000000000000000000, 1.321546870045791800E-019, 1.000000000000000000 ) ) ;
#8 = EDGE_CURVE ( 'NONE', #56, #23, #1, .T. ) ;
#9 = FACE_OUTER_BOUND ( 'NONE', #129, .T. ) ;
#10 = CARTESIAN_POINT ( 'NONE',  ( 0.0000000000000000000, 1.929020419384901500E-035, 1.459668561976966300E-016 ) ) ;
#11 =( NAMED_UNIT ( * ) SI_UNIT ( $, .STERADIAN. ) SOLID_ANGLE_UNIT ( ) );
#12 = DIRECTION ( 'NONE',  ( -0.0000000000000000000, 1.321546870045791800E-019, 1.000000000000000000 ) ) ;
#13 = PRESENTATION_LAYER_ASSIGNMENT (  '', '', ( #183 ) ) ;
#14 = VERTEX_POINT ( 'NONE', #57 ) ;
#15 = AXIS2_PLACEMENT_3D ( 'NONE', #4, #173, #106 ) ;
#16 = ADVANCED_FACE ( 'NONE', ( #212 ), #22, .F. ) ;
#17 = AXIS2_PLACEMENT_3D ( 'NONE', #65, #12, #76 ) ;
#18 = MECHANICAL_DESIGN_GEOMETRIC_PRESENTATION_REPRESENTATION (  '', ( #183 ), #58 ) ;
#19 = CARTESIAN_POINT ( 'NONE',  ( 0.0000000000000000000, 1.929020419384901500E-035, 1.459668561976966300E-016 ) ) ;
#20 = LINE ( 'NONE', #142, #137 ) ;
#21 = DIRECTION ( 'NONE',  ( 0.0000000000000000000, 1.000000000000000000, -1.321546870045810100E-019 ) ) ;
#22 = PLANE ( 'NONE',  #63 ) ;
#23 = VERTEX_POINT ( 'NONE', #104 ) ;
#24 = DIRECTION ( 'NONE',  ( -0.0000000000000000000, 1.321546870045791800E-019, 1.000000000000000000 ) ) ;
#25 =( LENGTH_UNIT ( ) NAMED_UNIT ( * ) SI_UNIT ( .MILLI., .METRE. ) );
#26 = SURFACE_STYLE_USAGE ( .BOTH. , #191 ) ;
#27 = DIRECTION ( 'NONE',  ( -0.0000000000000000000, 1.321546870045791800E-019, 1.000000000000000000 ) ) ;
#28 = FACE_OUTER_BOUND ( 'NONE', #52, .T. ) ;
#29 = AXIS2_PLACEMENT_3D ( 'NONE', #108, #196, #97 ) ;
#30 = ORIENTED_EDGE ( 'NONE', *, *, #49, .T. ) ;
#31 = AXIS2_PLACEMENT_3D ( 'NONE', #120, #172, #105 ) ;
#32 = ORIENTED_EDGE ( 'NONE', *, *, #207, .F. ) ;
#33 = ADVANCED_FACE ( 'NONE', ( #151 ), #174, .T. ) ;
#34 = CONICAL_SURFACE ( 'NONE', #15, 1.905000000000003800, 0.7853981633974528300 ) ;
#35 = EDGE_LOOP ( 'NONE', ( #163, #54, #132 ) ) ;
#36 = AXIS2_PLACEMENT_3D ( 'NONE', #19, #121, #202 ) ;
#37 = CARTESIAN_POINT ( 'NONE',  ( 0.0000000000000000000, -1.187890192761525600E-017, -89.88634604540094100 ) ) ;
#38 = CARTESIAN_POINT ( 'NONE',  ( 1.842643704512397200E-049, -1.187890192761525300E-017, -89.88634604540094100 ) ) ;
#39 = DIRECTION ( 'NONE',  ( 1.131426112287698800E-016, 0.9238795325112855200, 0.3826834323650926700 ) ) ;
#40 = ORIENTED_EDGE ( 'NONE', *, *, #8, .T. ) ;
#41 = DIRECTION ( 'NONE',  ( 0.0000000000000000000, -1.000000000000000000, 0.0000000000000000000 ) ) ;
#42 = AXIS2_PLACEMENT_3D ( 'NONE', #74, #187, #5 ) ;
#43 =( NAMED_UNIT ( * ) PLANE_ANGLE_UNIT ( ) SI_UNIT ( $, .RADIAN. ) );
#44 = VECTOR ( 'NONE', #205, 1000.000000000000000 ) ;
#45 = PRODUCT_DEFINITION_CONTEXT ( 'detailed design', #143, 'design' ) ;
#46 =( NAMED_UNIT ( * ) PLANE_ANGLE_UNIT ( ) SI_UNIT ( $, .RADIAN. ) );
#47 = SURFACE_STYLE_USAGE ( .BOTH. , #112 ) ;
#48 =( LENGTH_UNIT ( ) NAMED_UNIT ( * ) SI_UNIT ( .MILLI., .METRE. ) );
#49 = EDGE_CURVE ( 'NONE', #82, #160, #75, .T. ) ;
#50 = APPLICATION_PROTOCOL_DEFINITION ( 'draft international standard', 'automotive_design', 1998, #143 ) ;
#51 = ORIENTED_EDGE ( 'NONE', *, *, #152, .T. ) ;
#52 = EDGE_LOOP ( 'NONE', ( #189, #60, #84 ) ) ;
#53 = AXIS2_PLACEMENT_3D ( 'NONE', #127, #179, #41 ) ;
#54 = ORIENTED_EDGE ( 'NONE', *, *, #168, .T. ) ;
#55 = PRESENTATION_STYLE_ASSIGNMENT (( #26 ) ) ;
#56 = VERTEX_POINT ( 'NONE', #59 ) ;
#57 = CARTESIAN_POINT ( 'NONE',  ( 2.916190190469648400E-016, 2.381250000000010700, -88.89999999999999100 ) ) ;
#58 =( GEOMETRIC_REPRESENTATION_CONTEXT ( 3 ) GLOBAL_UNCERTAINTY_ASSIGNED_CONTEXT ( ( #71 ) ) GLOBAL_UNIT_ASSIGNED_CONTEXT ( ( #25, #46, #91 ) ) REPRESENTATION_CONTEXT ( 'NONE', 'WORKASPACE' ) );
#59 = CARTESIAN_POINT ( 'NONE',  ( 0.0000000000000000000, 1.905000000000003800, 1.457151015189529000E-016 ) ) ;
#60 = ORIENTED_EDGE ( 'NONE', *, *, #77, .T. ) ;
#61 = DIRECTION ( 'NONE',  ( 0.0000000000000000000, -1.000000000000000000, 1.321546870045791800E-019 ) ) ;
#62 = FILL_AREA_STYLE ('',( #180 ) ) ;
#63 = AXIS2_PLACEMENT_3D ( 'NONE', #2, #87, #176 ) ;
#64 =( NAMED_UNIT ( * ) SI_UNIT ( $, .STERADIAN. ) SOLID_ANGLE_UNIT ( ) );
#65 = CARTESIAN_POINT ( 'NONE',  ( 0.0000000000000000000, -1.174855167470708900E-017, -88.89999999999999100 ) ) ;
#66 = AXIS2_PLACEMENT_3D ( 'NONE', #156, #7, #21 ) ;
#67 = VECTOR ( 'NONE', #177, 1000.000000000000000 ) ;
#68 = CIRCLE ( 'NONE', #17, 2.381250000000010700 ) ;
#69 = ORIENTED_EDGE ( 'NONE', *, *, #148, .F. ) ;
#70 = COLOUR_RGB ( '',0.7921568627450980000, 0.8196078431372548800, 0.9333333333333333500 ) ;
#71 = UNCERTAINTY_MEASURE_WITH_UNIT (LENGTH_MEASURE( 1.000000000000000100E-005 ), #25, 'distance_accuracy_value', 'NONE');
#72 = AXIS2_PLACEMENT_3D ( 'NONE', #10, #111, #194 ) ;
#73 = DIRECTION ( 'NONE',  ( -0.0000000000000000000, 1.321546870045791800E-019, 1.000000000000000000 ) ) ;
#74 = CARTESIAN_POINT ( 'NONE',  ( 0.0000000000000000000, -6.293866968593048900E-020, -0.4762499999999974000 ) ) ;
#75 = CIRCLE ( 'NONE', #31, 2.381250000000005900 ) ;
#76 = DIRECTION ( 'NONE',  ( 0.0000000000000000000, -1.000000000000000000, 0.0000000000000000000 ) ) ;
#77 = EDGE_CURVE ( 'NONE', #88, #14, #103, .T. ) ;
#78 = ORIENTED_EDGE ( 'NONE', *, *, #186, .F. ) ;
#79 =( NAMED_UNIT ( * ) PLANE_ANGLE_UNIT ( ) SI_UNIT ( $, .RADIAN. ) );
#80 = APPLICATION_PROTOCOL_DEFINITION ( 'draft international standard', 'automotive_design', 1998, #141 ) ;
#81 = CARTESIAN_POINT ( 'NONE',  ( 0.0000000000000000000, -2.381250000000005900, 3.146933484296549300E-019 ) ) ;
#82 = VERTEX_POINT ( 'NONE', #201 ) ;
#83 = LINE ( 'NONE', #94, #101 ) ;
#84 = ORIENTED_EDGE ( 'NONE', *, *, #184, .F. ) ;
#85 = ORIENTED_EDGE ( 'NONE', *, *, #165, .T. ) ;
#86 = LINE ( 'NONE', #81, #44 ) ;
#87 = DIRECTION ( 'NONE',  ( 0.0000000000000000000, -1.321546870045791800E-019, -1.000000000000000000 ) ) ;
#88 = VERTEX_POINT ( 'NONE', #37 ) ;
#89 = DIRECTION ( 'NONE',  ( 0.0000000000000000000, -1.000000000000000000, 1.321546870045791800E-019 ) ) ;
#90 = DIRECTION ( 'NONE',  ( 0.0000000000000000000, -0.9238795325112855200, 0.3826834323650926700 ) ) ;
#91 =( NAMED_UNIT ( * ) SI_UNIT ( $, .STERADIAN. ) SOLID_ANGLE_UNIT ( ) );
#92 = EDGE_LOOP ( 'NONE', ( #40, #96 ) ) ;
#93 = CARTESIAN_POINT ( 'NONE',  ( 2.916190190469642000E-016, 2.381250000000005900, -3.146933484296549300E-019 ) ) ;
#94 = CARTESIAN_POINT ( 'NONE',  ( 0.0000000000000000000, 1.905000000000003800, 1.457151015189529000E-016 ) ) ;
#95 = PRODUCT_CONTEXT ( 'NONE', #141, 'mechanical' ) ;
#96 = ORIENTED_EDGE ( 'NONE', *, *, #198, .T. ) ;
#97 = DIRECTION ( 'NONE',  ( 1.000000000000000000, 0.0000000000000000000, 0.0000000000000000000 ) ) ;
#98 = CIRCLE ( 'NONE', #53, 2.381250000000010700 ) ;
#99 = ORIENTED_EDGE ( 'NONE', *, *, #186, .T. ) ;
#100 = PRODUCT_DEFINITION ( 'UNKNOWN', '', #211, #45 ) ;
#101 = VECTOR ( 'NONE', #209, 1000.000000000000100 ) ;
#102 = CONICAL_SURFACE ( 'NONE', #162, 2414.213562373073700, 1.178097245096169300 ) ;
#103 = LINE ( 'NONE', #38, #118 ) ;
#104 = CARTESIAN_POINT ( 'NONE',  ( 2.624571171422677100E-016, -1.905000000000003800, 1.462186108764403600E-016 ) ) ;
#105 = DIRECTION ( 'NONE',  ( 0.0000000000000000000, 1.000000000000000000, 0.0000000000000000000 ) ) ;
#106 = DIRECTION ( 'NONE',  ( 0.0000000000000000000, 1.000000000000000000, -1.321546870045810100E-019 ) ) ;
#107 = CYLINDRICAL_SURFACE ( 'NONE', #109, 2.381250000000005900 ) ;
#108 = CARTESIAN_POINT ( 'NONE',  ( 0.0000000000000000000, 0.0000000000000000000, 0.0000000000000000000 ) ) ;
#109 = AXIS2_PLACEMENT_3D ( 'NONE', #153, #73, #89 ) ;
#110 = CARTESIAN_POINT ( 'NONE',  ( 0.0000000000000000000, -2.381250000000010700, -88.89999999999999100 ) ) ;
#111 = DIRECTION ( 'NONE',  ( -0.0000000000000000000, 1.321546870045791800E-019, 1.000000000000000000 ) ) ;
#112 = SURFACE_SIDE_STYLE ('',( #133 ) ) ;
#113 = SURFACE_STYLE_FILL_AREA ( #128 ) ;
#114 = ORIENTED_EDGE ( 'NONE', *, *, #198, .F. ) ;
#115 = ORIENTED_EDGE ( 'NONE', *, *, #148, .T. ) ;
#116 = ADVANCED_FACE ( 'NONE', ( #9 ), #107, .T. ) ;
#117 = SHAPE_DEFINITION_REPRESENTATION ( #185, #171 ) ;
#118 = VECTOR ( 'NONE', #39, 1000.000000000000000 ) ;
#119 = CLOSED_SHELL ( 'NONE', ( #147, #116, #149, #16, #154, #164, #33 ) ) ;
#120 = CARTESIAN_POINT ( 'NONE',  ( 0.0000000000000000000, -6.293866968593048900E-020, -0.4762499999999974000 ) ) ;
#121 = DIRECTION ( 'NONE',  ( 0.0000000000000000000, -1.321546870045791800E-019, -1.000000000000000000 ) ) ;
#122 = ORIENTED_EDGE ( 'NONE', *, *, #136, .T. ) ;
#123 = DIRECTION ( 'NONE',  ( -0.0000000000000000000, 1.321546870045791800E-019, 1.000000000000000000 ) ) ;
#124 =( GEOMETRIC_REPRESENTATION_CONTEXT ( 3 ) GLOBAL_UNCERTAINTY_ASSIGNED_CONTEXT ( ( #195 ) ) GLOBAL_UNIT_ASSIGNED_CONTEXT ( ( #48, #43, #11 ) ) REPRESENTATION_CONTEXT ( 'NONE', 'WORKASPACE' ) );
#125 = CARTESIAN_POINT ( 'NONE',  ( 0.0000000000000000000, 0.0000000000000000000, 0.0000000000000000000 ) ) ;
#126 = FILL_AREA_STYLE_COLOUR ( '', #70 ) ;
#127 = CARTESIAN_POINT ( 'NONE',  ( 0.0000000000000000000, -1.174855167470708900E-017, -88.89999999999999100 ) ) ;
#128 = FILL_AREA_STYLE ('',( #126 ) ) ;
#129 = EDGE_LOOP ( 'NONE', ( #166, #139, #122, #78 ) ) ;
#130 = FACE_OUTER_BOUND ( 'NONE', #146, .T. ) ;
#131 = UNCERTAINTY_MEASURE_WITH_UNIT (LENGTH_MEASURE( 1.000000000000000100E-005 ), #193, 'distance_accuracy_value', 'NONE');
#132 = ORIENTED_EDGE ( 'NONE', *, *, #165, .F. ) ;
#133 = SURFACE_STYLE_FILL_AREA ( #62 ) ;
#134 = CONICAL_SURFACE ( 'NONE', #203, 2414.213562373073700, 1.178097245096169300 ) ;
#135 = EDGE_LOOP ( 'NONE', ( #69, #214, #51, #157 ) ) ;
#136 = EDGE_CURVE ( 'NONE', #160, #82, #199, .T. ) ;
#137 = VECTOR ( 'NONE', #90, 1000.000000000000000 ) ;
#138 = DIRECTION ( 'NONE',  ( 8.659560562354972300E-017, -0.7071067811865507900, -0.7071067811865442400 ) ) ;
#139 = ORIENTED_EDGE ( 'NONE', *, *, #207, .T. ) ;
#140 = DIRECTION ( 'NONE',  ( 0.0000000000000000000, -1.000000000000000000, 0.0000000000000000000 ) ) ;
#141 = APPLICATION_CONTEXT ( 'automotive_design' ) ;
#142 = CARTESIAN_POINT ( 'NONE',  ( 0.0000000000000000000, -1.187890192761525600E-017, -89.88634604540094100 ) ) ;
#143 = APPLICATION_CONTEXT ( 'automotive_design' ) ;
#144 = PRESENTATION_LAYER_ASSIGNMENT (  '', '', ( #190 ) ) ;
#145 = MECHANICAL_DESIGN_GEOMETRIC_PRESENTATION_REPRESENTATION (  '', ( #190 ), #159 ) ;
#146 = EDGE_LOOP ( 'NONE', ( #114, #115, #182, #200 ) ) ;
#147 = ADVANCED_FACE ( 'NONE', ( #130 ), #34, .T. ) ;
#148 = EDGE_CURVE ( 'NONE', #23, #82, #178, .T. ) ;
#149 = ADVANCED_FACE ( 'NONE', ( #28 ), #102, .T. ) ;
#150 = PRODUCT ( '03-0348', '03-0348', '', ( #95 ) ) ;
#151 = FACE_OUTER_BOUND ( 'NONE', #135, .T. ) ;
#152 = EDGE_CURVE ( 'NONE', #56, #160, #83, .T. ) ;
#153 = CARTESIAN_POINT ( 'NONE',  ( 0.0000000000000000000, 0.0000000000000000000, 0.0000000000000000000 ) ) ;
#154 = ADVANCED_FACE ( 'NONE', ( #3 ), #134, .T. ) ;
#155 = FACE_OUTER_BOUND ( 'NONE', #170, .T. ) ;
#156 = CARTESIAN_POINT ( 'NONE',  ( 0.0000000000000000000, 1.929020419384901500E-035, 1.459668561976966300E-016 ) ) ;
#157 = ORIENTED_EDGE ( 'NONE', *, *, #49, .F. ) ;
#158 = DIRECTION ( 'NONE',  ( 0.0000000000000000000, -1.000000000000000000, 0.0000000000000000000 ) ) ;
#159 =( GEOMETRIC_REPRESENTATION_CONTEXT ( 3 ) GLOBAL_UNCERTAINTY_ASSIGNED_CONTEXT ( ( #131 ) ) GLOBAL_UNIT_ASSIGNED_CONTEXT ( ( #193, #79, #64 ) ) REPRESENTATION_CONTEXT ( 'NONE', 'WORKASPACE' ) );
#160 = VERTEX_POINT ( 'NONE', #181 ) ;
#161 = CARTESIAN_POINT ( 'NONE',  ( 0.0000000000000000000, 1.202757850769639300E-016, 910.1136539545990400 ) ) ;
#162 = AXIS2_PLACEMENT_3D ( 'NONE', #188, #123, #158 ) ;
#163 = ORIENTED_EDGE ( 'NONE', *, *, #77, .F. ) ;
#164 = ADVANCED_FACE ( 'NONE', ( #155 ), #175, .T. ) ;
#165 = EDGE_CURVE ( 'NONE', #14, #197, #68, .T. ) ;
#166 = ORIENTED_EDGE ( 'NONE', *, *, #184, .T. ) ;
#167 = PRESENTATION_STYLE_ASSIGNMENT (( #47 ) ) ;
#168 = EDGE_CURVE ( 'NONE', #88, #197, #20, .T. ) ;
#169 = LINE ( 'NONE', #93, #67 ) ;
#170 = EDGE_LOOP ( 'NONE', ( #32, #85, #99, #30 ) ) ;
#171 = ADVANCED_BREP_SHAPE_REPRESENTATION ( '03-0348', ( #208, #29 ), #124 ) ;
#172 = DIRECTION ( 'NONE',  ( 0.0000000000000000000, -1.321546870045791800E-019, -1.000000000000000000 ) ) ;
#173 = DIRECTION ( 'NONE',  ( 0.0000000000000000000, -1.321546870045791800E-019, -1.000000000000000000 ) ) ;
#174 = CONICAL_SURFACE ( 'NONE', #36, 1.905000000000003800, 0.7853981633974528300 ) ;
#175 = CYLINDRICAL_SURFACE ( 'NONE', #213, 2.381250000000005900 ) ;
#176 = DIRECTION ( 'NONE',  ( 0.0000000000000000000, 1.000000000000000000, -1.321546870045791800E-019 ) ) ;
#177 = DIRECTION ( 'NONE',  ( -0.0000000000000000000, 1.321546870045791800E-019, 1.000000000000000000 ) ) ;
#178 = LINE ( 'NONE', #204, #210 ) ;
#179 = DIRECTION ( 'NONE',  ( -0.0000000000000000000, 1.321546870045791800E-019, 1.000000000000000000 ) ) ;
#180 = FILL_AREA_STYLE_COLOUR ( '', #192 ) ;
#181 = CARTESIAN_POINT ( 'NONE',  ( 2.916190190469642000E-016, 2.381250000000005900, -0.4762499999999974000 ) ) ;
#182 = ORIENTED_EDGE ( 'NONE', *, *, #136, .F. ) ;
#183 = STYLED_ITEM ( 'NONE', ( #55 ), #208 ) ;
#184 = EDGE_CURVE ( 'NONE', #197, #14, #98, .T. ) ;
#185 = PRODUCT_DEFINITION_SHAPE ( 'NONE', 'NONE',  #100 ) ;
#186 = EDGE_CURVE ( 'NONE', #197, #82, #86, .T. ) ;
#187 = DIRECTION ( 'NONE',  ( 0.0000000000000000000, -1.321546870045791800E-019, -1.000000000000000000 ) ) ;
#188 = CARTESIAN_POINT ( 'NONE',  ( 0.0000000000000000000, 1.202757850769639300E-016, 910.1136539545990400 ) ) ;
#189 = ORIENTED_EDGE ( 'NONE', *, *, #168, .F. ) ;
#190 = STYLED_ITEM ( 'NONE', ( #167 ), #171 ) ;
#191 = SURFACE_SIDE_STYLE ('',( #113 ) ) ;
#192 = COLOUR_RGB ( '',0.7921568627450980000, 0.8196078431372548800, 0.9333333333333333500 ) ;
#193 =( LENGTH_UNIT ( ) NAMED_UNIT ( * ) SI_UNIT ( .MILLI., .METRE. ) );
#194 = DIRECTION ( 'NONE',  ( 0.0000000000000000000, 1.000000000000000000, -1.321546870045810100E-019 ) ) ;
#195 = UNCERTAINTY_MEASURE_WITH_UNIT (LENGTH_MEASURE( 1.000000000000000100E-005 ), #48, 'distance_accuracy_value', 'NONE');
#196 = DIRECTION ( 'NONE',  ( 0.0000000000000000000, 0.0000000000000000000, 1.000000000000000000 ) ) ;
#197 = VERTEX_POINT ( 'NONE', #110 ) ;
#198 = EDGE_CURVE ( 'NONE', #23, #56, #206, .T. ) ;
#199 = CIRCLE ( 'NONE', #42, 2.381250000000005900 ) ;
#200 = ORIENTED_EDGE ( 'NONE', *, *, #152, .F. ) ;
#201 = CARTESIAN_POINT ( 'NONE',  ( 0.0000000000000000000, -2.381250000000005900, -0.4762499999999974000 ) ) ;
#202 = DIRECTION ( 'NONE',  ( 0.0000000000000000000, 1.000000000000000000, -1.321546870045810100E-019 ) ) ;
#203 = AXIS2_PLACEMENT_3D ( 'NONE', #161, #27, #140 ) ;
#204 = CARTESIAN_POINT ( 'NONE',  ( 2.332952152375712700E-016, -1.905000000000003800, 1.462186108764403600E-016 ) ) ;
#205 = DIRECTION ( 'NONE',  ( -0.0000000000000000000, 1.321546870045791800E-019, 1.000000000000000000 ) ) ;
#206 = CIRCLE ( 'NONE', #72, 1.905000000000003800 ) ;
#207 = EDGE_CURVE ( 'NONE', #14, #160, #169, .T. ) ;
#208 = MANIFOLD_SOLID_BREP ( '¸ðµû±â1', #119 ) ;
#209 = DIRECTION ( 'NONE',  ( 0.0000000000000000000, 0.7071067811865507900, -0.7071067811865442400 ) ) ;
#210 = VECTOR ( 'NONE', #138, 1000.000000000000100 ) ;
#211 = PRODUCT_DEFINITION_FORMATION_WITH_SPECIFIED_SOURCE ( 'ANY', '', #150, .NOT_KNOWN. ) ;
#212 = FACE_OUTER_BOUND ( 'NONE', #92, .T. ) ;
#213 = AXIS2_PLACEMENT_3D ( 'NONE', #125, #24, #61 ) ;
#214 = ORIENTED_EDGE ( 'NONE', *, *, #8, .F. ) ;
ENDSEC;
END-ISO-10303-21;
