ISO-10303-21;
HEADER;
FILE_DESCRIPTION (( 'STEP AP214' ),
    '1' );
FILE_NAME ('03-0349.STEP',
    '2020-07-23T07:02:50',
    ( '' ),
    ( '' ),
    'SwSTEP 2.0',
    'SolidWorks 2014',
    '' );
FILE_SCHEMA (( 'AUTOMOTIVE_DESIGN' ));
ENDSEC;

DATA;
#1 = LINE ( 'NONE', #4, #81 ) ;
#2 = CARTESIAN_POINT ( 'NONE',  ( 0.0000000000000000000, 2.063750000000017100, 1.579580995253376400E-016 ) ) ;
#3 = AXIS2_PLACEMENT_3D ( 'NONE', #90, #7, #8 ) ;
#4 = CARTESIAN_POINT ( 'NONE',  ( 0.0000000000000000000, -2.650770408971538600E-019, -93.14354154918434900 ) ) ;
#5 = DIRECTION ( 'NONE',  ( 0.0000000000000000000, -0.9238795325112856300, 0.3826834323650922800 ) ) ;
#6 = ORIENTED_EDGE ( 'NONE', *, *, #191, .F. ) ;
#7 = DIRECTION ( 'NONE',  ( 0.0000000000000000000, -2.845898239301757900E-021, -1.000000000000000000 ) ) ;
#8 = DIRECTION ( 'NONE',  ( 0.0000000000000000000, 1.000000000000000000, -2.845898239303186100E-021 ) ) ;
#9 = AXIS2_PLACEMENT_3D ( 'NONE', #102, #200, #163 ) ;
#10 = DIRECTION ( 'NONE',  ( -0.0000000000000000000, 2.845898239301757900E-021, 1.000000000000000000 ) ) ;
#11 =( NAMED_UNIT ( * ) SI_UNIT ( $, .STERADIAN. ) SOLID_ANGLE_UNIT ( ) );
#12 = COLOUR_RGB ( '',0.7921568627450980000, 0.8196078431372548800, 0.9333333333333333500 ) ;
#13 = EDGE_CURVE ( 'NONE', #57, #179, #1, .T. ) ;
#14 = APPLICATION_CONTEXT ( 'automotive_design' ) ;
#15 = FACE_OUTER_BOUND ( 'NONE', #97, .T. ) ;
#16 = ORIENTED_EDGE ( 'NONE', *, *, #195, .T. ) ;
#17 =( GEOMETRIC_REPRESENTATION_CONTEXT ( 3 ) GLOBAL_UNCERTAINTY_ASSIGNED_CONTEXT ( ( #212 ) ) GLOBAL_UNIT_ASSIGNED_CONTEXT ( ( #141, #140, #11 ) ) REPRESENTATION_CONTEXT ( 'NONE', 'WORKASPACE' ) );
#18 = VECTOR ( 'NONE', #106, 1000.000000000000000 ) ;
#19 = CIRCLE ( 'NONE', #33, 2.579687500000005700 ) ;
#20 = EDGE_CURVE ( 'NONE', #145, #30, #59, .T. ) ;
#21 = ORIENTED_EDGE ( 'NONE', *, *, #187, .F. ) ;
#22 = EDGE_LOOP ( 'NONE', ( #44, #99, #68, #120 ) ) ;
#23 = DIRECTION ( 'NONE',  ( 0.0000000000000000000, -1.000000000000000000, 0.0000000000000000000 ) ) ;
#24 = MECHANICAL_DESIGN_GEOMETRIC_PRESENTATION_REPRESENTATION (  '', ( #173 ), #17 ) ;
#25 = CARTESIAN_POINT ( 'NONE',  ( 2.527364831740371100E-016, -2.063750000000017100, 1.579698459703203700E-016 ) ) ;
#26 = AXIS2_PLACEMENT_3D ( 'NONE', #185, #10, #156 ) ;
#27 = CARTESIAN_POINT ( 'NONE',  ( 0.0000000000000000000, 2.580821198404603900E-018, 906.8564584508156900 ) ) ;
#28 = ORIENTED_EDGE ( 'NONE', *, *, #78, .F. ) ;
#29 = APPLICATION_CONTEXT ( 'automotive_design' ) ;
#30 = VERTEX_POINT ( 'NONE', #196 ) ;
#31 = AXIS2_PLACEMENT_3D ( 'NONE', #27, #147, #39 ) ;
#32 = AXIS2_PLACEMENT_3D ( 'NONE', #190, #203, #94 ) ;
#33 = AXIS2_PLACEMENT_3D ( 'NONE', #168, #71, #72 ) ;
#34 = LINE ( 'NONE', #25, #167 ) ;
#35 =( GEOMETRIC_REPRESENTATION_CONTEXT ( 3 ) GLOBAL_UNCERTAINTY_ASSIGNED_CONTEXT ( ( #132 ) ) GLOBAL_UNIT_ASSIGNED_CONTEXT ( ( #60, #77, #142 ) ) REPRESENTATION_CONTEXT ( 'NONE', 'WORKASPACE' ) );
#36 = PLANE ( 'NONE',  #62 ) ;
#37 = DIRECTION ( 'NONE',  ( -0.0000000000000000000, 2.845898239301757900E-021, 1.000000000000000000 ) ) ;
#38 = LINE ( 'NONE', #148, #55 ) ;
#39 = DIRECTION ( 'NONE',  ( 0.0000000000000000000, -1.000000000000000000, 0.0000000000000000000 ) ) ;
#40 = DIRECTION ( 'NONE',  ( -0.0000000000000000000, 2.845898239301757900E-021, 1.000000000000000000 ) ) ;
#41 = CARTESIAN_POINT ( 'NONE',  ( 0.0000000000000000000, 4.495493919161574000E-037, 1.579639727478289900E-016 ) ) ;
#42 = ORIENTED_EDGE ( 'NONE', *, *, #197, .T. ) ;
#43 = DIRECTION ( 'NONE',  ( 0.0000000000000000000, 1.000000000000000000, -2.845898239303186100E-021 ) ) ;
#44 = ORIENTED_EDGE ( 'NONE', *, *, #82, .F. ) ;
#45 = ADVANCED_FACE ( 'NONE', ( #175 ), #127, .T. ) ;
#46 = FILL_AREA_STYLE ('',( #153 ) ) ;
#47 = VECTOR ( 'NONE', #135, 999.9999999999998900 ) ;
#48 = AXIS2_PLACEMENT_3D ( 'NONE', #52, #37, #23 ) ;
#49 = ADVANCED_FACE ( 'NONE', ( #15 ), #101, .T. ) ;
#50 = ORIENTED_EDGE ( 'NONE', *, *, #78, .T. ) ;
#51 = VERTEX_POINT ( 'NONE', #199 ) ;
#52 = CARTESIAN_POINT ( 'NONE',  ( 0.0000000000000000000, -2.620360803837093300E-019, -92.07499999999998900 ) ) ;
#53 = VECTOR ( 'NONE', #5, 1000.000000000000100 ) ;
#54 = DIRECTION ( 'NONE',  ( 8.659560562354868800E-017, -0.7071067811865421300, -0.7071067811865530100 ) ) ;
#55 = VECTOR ( 'NONE', #89, 1000.000000000000000 ) ;
#56 = CARTESIAN_POINT ( 'NONE',  ( 0.0000000000000000000, -2.579687500000005700, -0.5159374999999963900 ) ) ;
#57 = VERTEX_POINT ( 'NONE', #67 ) ;
#58 = CARTESIAN_POINT ( 'NONE',  ( 0.0000000000000000000, 2.063750000000017100, 1.579580995253376400E-016 ) ) ;
#59 = LINE ( 'NONE', #2, #47 ) ;
#60 =( LENGTH_UNIT ( ) NAMED_UNIT ( * ) SI_UNIT ( .MILLI., .METRE. ) );
#61 = PRODUCT_CONTEXT ( 'NONE', #29, 'mechanical' ) ;
#62 = AXIS2_PLACEMENT_3D ( 'NONE', #150, #66, #118 ) ;
#63 = EDGE_LOOP ( 'NONE', ( #21, #75, #110, #114 ) ) ;
#64 = PRODUCT_DEFINITION_CONTEXT ( 'detailed design', #14, 'design' ) ;
#65 = CYLINDRICAL_SURFACE ( 'NONE', #26, 2.579687500000005700 ) ;
#66 = DIRECTION ( 'NONE',  ( 0.0000000000000000000, -2.845898239301757900E-021, -1.000000000000000000 ) ) ;
#67 = CARTESIAN_POINT ( 'NONE',  ( 0.0000000000000000000, -2.650770408971538600E-019, -93.14354154918434900 ) ) ;
#68 = ORIENTED_EDGE ( 'NONE', *, *, #20, .T. ) ;
#69 = DIRECTION ( 'NONE',  ( -0.0000000000000000000, 2.845898239301757900E-021, 1.000000000000000000 ) ) ;
#70 =( NAMED_UNIT ( * ) SI_UNIT ( $, .STERADIAN. ) SOLID_ANGLE_UNIT ( ) );
#71 = DIRECTION ( 'NONE',  ( 0.0000000000000000000, -2.845898239301757900E-021, -1.000000000000000000 ) ) ;
#72 = DIRECTION ( 'NONE',  ( 0.0000000000000000000, 1.000000000000000000, 0.0000000000000000000 ) ) ;
#73 = SURFACE_SIDE_STYLE ('',( #176 ) ) ;
#74 = AXIS2_PLACEMENT_3D ( 'NONE', #84, #117, #85 ) ;
#75 = ORIENTED_EDGE ( 'NONE', *, *, #82, .T. ) ;
#76 = ADVANCED_FACE ( 'NONE', ( #160 ), #36, .F. ) ;
#77 =( NAMED_UNIT ( * ) PLANE_ANGLE_UNIT ( ) SI_UNIT ( $, .RADIAN. ) );
#78 = EDGE_CURVE ( 'NONE', #179, #104, #162, .T. ) ;
#79 = ORIENTED_EDGE ( 'NONE', *, *, #195, .F. ) ;
#80 = ADVANCED_FACE ( 'NONE', ( #214 ), #124, .T. ) ;
#81 = VECTOR ( 'NONE', #182, 1000.000000000000100 ) ;
#82 = EDGE_CURVE ( 'NONE', #51, #115, #34, .T. ) ;
#83 = ORIENTED_EDGE ( 'NONE', *, *, #13, .T. ) ;
#84 = CARTESIAN_POINT ( 'NONE',  ( 0.0000000000000000000, 0.0000000000000000000, 0.0000000000000000000 ) ) ;
#85 = DIRECTION ( 'NONE',  ( 0.0000000000000000000, -1.000000000000000000, 2.845898239301757500E-021 ) ) ;
#86 = CONICAL_SURFACE ( 'NONE', #3, 2.063750000000017100, 0.7853981633974407300 ) ;
#87 = CLOSED_SHELL ( 'NONE', ( #208, #112, #49, #76, #45, #80, #146 ) ) ;
#88 = EDGE_CURVE ( 'NONE', #145, #51, #201, .T. ) ;
#89 = DIRECTION ( 'NONE',  ( -0.0000000000000000000, 2.845898239301757900E-021, 1.000000000000000000 ) ) ;
#90 = CARTESIAN_POINT ( 'NONE',  ( 0.0000000000000000000, 4.495493919161574000E-037, 1.579639727478289900E-016 ) ) ;
#91 = ORIENTED_EDGE ( 'NONE', *, *, #96, .F. ) ;
#92 = ORIENTED_EDGE ( 'NONE', *, *, #191, .T. ) ;
#93 = DIRECTION ( 'NONE',  ( 0.0000000000000000000, -2.845898239301757900E-021, -1.000000000000000000 ) ) ;
#94 = DIRECTION ( 'NONE',  ( 0.0000000000000000000, -1.000000000000000000, 0.0000000000000000000 ) ) ;
#95 = ORIENTED_EDGE ( 'NONE', *, *, #88, .T. ) ;
#96 = EDGE_CURVE ( 'NONE', #104, #115, #38, .T. ) ;
#97 = EDGE_LOOP ( 'NONE', ( #139, #83, #6 ) ) ;
#98 = SURFACE_STYLE_FILL_AREA ( #46 ) ;
#99 = ORIENTED_EDGE ( 'NONE', *, *, #88, .F. ) ;
#100 = FACE_OUTER_BOUND ( 'NONE', #22, .T. ) ;
#101 = CONICAL_SURFACE ( 'NONE', #9, 2414.213562373076900, 1.178097245096169800 ) ;
#102 = CARTESIAN_POINT ( 'NONE',  ( 0.0000000000000000000, 2.580821198404603900E-018, 906.8564584508156900 ) ) ;
#103 = LINE ( 'NONE', #105, #18 ) ;
#104 = VERTEX_POINT ( 'NONE', #188 ) ;
#105 = CARTESIAN_POINT ( 'NONE',  ( 3.159206039675444700E-016, 2.579687500000005700, -7.341528114198768500E-021 ) ) ;
#106 = DIRECTION ( 'NONE',  ( -0.0000000000000000000, 2.845898239301757900E-021, 1.000000000000000000 ) ) ;
#107 = FILL_AREA_STYLE_COLOUR ( '', #12 ) ;
#108 = PRESENTATION_LAYER_ASSIGNMENT (  '', '', ( #173 ) ) ;
#109 = DIRECTION ( 'NONE',  ( 1.000000000000000000, 0.0000000000000000000, 0.0000000000000000000 ) ) ;
#110 = ORIENTED_EDGE ( 'NONE', *, *, #131, .F. ) ;
#111 = DIRECTION ( 'NONE',  ( 0.0000000000000000000, 0.0000000000000000000, 1.000000000000000000 ) ) ;
#112 = ADVANCED_FACE ( 'NONE', ( #159 ), #65, .T. ) ;
#113 = PRODUCT_RELATED_PRODUCT_CATEGORY ( 'part', '', ( #122 ) ) ;
#114 = ORIENTED_EDGE ( 'NONE', *, *, #20, .F. ) ;
#115 = VERTEX_POINT ( 'NONE', #56 ) ;
#116 = STYLED_ITEM ( 'NONE', ( #119 ), #136 ) ;
#117 = DIRECTION ( 'NONE',  ( -0.0000000000000000000, 2.845898239301757900E-021, 1.000000000000000000 ) ) ;
#118 = DIRECTION ( 'NONE',  ( 0.0000000000000000000, 1.000000000000000000, -2.845898239301757900E-021 ) ) ;
#119 = PRESENTATION_STYLE_ASSIGNMENT (( #158 ) ) ;
#120 = ORIENTED_EDGE ( 'NONE', *, *, #164, .F. ) ;
#121 = CARTESIAN_POINT ( 'NONE',  ( 0.0000000000000000000, 0.0000000000000000000, 0.0000000000000000000 ) ) ;
#122 = PRODUCT ( '03-0349', '03-0349', '', ( #61 ) ) ;
#123 = CARTESIAN_POINT ( 'NONE',  ( 0.0000000000000000000, -2.650770408971538600E-019, -93.14354154918434900 ) ) ;
#124 = CYLINDRICAL_SURFACE ( 'NONE', #74, 2.579687500000005700 ) ;
#125 = FILL_AREA_STYLE ('',( #107 ) ) ;
#126 = FACE_OUTER_BOUND ( 'NONE', #63, .T. ) ;
#127 = CONICAL_SURFACE ( 'NONE', #31, 2414.213562373076900, 1.178097245096169800 ) ;
#128 =( GEOMETRIC_REPRESENTATION_CONTEXT ( 3 ) GLOBAL_UNCERTAINTY_ASSIGNED_CONTEXT ( ( #172 ) ) GLOBAL_UNIT_ASSIGNED_CONTEXT ( ( #169, #154, #70 ) ) REPRESENTATION_CONTEXT ( 'NONE', 'WORKASPACE' ) );
#129 = LINE ( 'NONE', #123, #53 ) ;
#130 = EDGE_LOOP ( 'NONE', ( #92, #16, #165, #91 ) ) ;
#131 = EDGE_CURVE ( 'NONE', #30, #115, #19, .T. ) ;
#132 = UNCERTAINTY_MEASURE_WITH_UNIT (LENGTH_MEASURE( 1.000000000000000100E-005 ), #60, 'distance_accuracy_value', 'NONE');
#133 = MECHANICAL_DESIGN_GEOMETRIC_PRESENTATION_REPRESENTATION (  '', ( #116 ), #35 ) ;
#134 = ORIENTED_EDGE ( 'NONE', *, *, #96, .T. ) ;
#135 = DIRECTION ( 'NONE',  ( 0.0000000000000000000, 0.7071067811865421300, -0.7071067811865530100 ) ) ;
#136 = ADVANCED_BREP_SHAPE_REPRESENTATION ( '03-0349', ( #161, #211 ), #128 ) ;
#137 = DIRECTION ( 'NONE',  ( 0.0000000000000000000, 1.000000000000000000, -2.845898239303186100E-021 ) ) ;
#138 = PRODUCT_DEFINITION ( 'UNKNOWN', '', #210, #64 ) ;
#139 = ORIENTED_EDGE ( 'NONE', *, *, #197, .F. ) ;
#140 =( NAMED_UNIT ( * ) PLANE_ANGLE_UNIT ( ) SI_UNIT ( $, .RADIAN. ) );
#141 =( LENGTH_UNIT ( ) NAMED_UNIT ( * ) SI_UNIT ( .MILLI., .METRE. ) );
#142 =( NAMED_UNIT ( * ) SI_UNIT ( $, .STERADIAN. ) SOLID_ANGLE_UNIT ( ) );
#143 = CONICAL_SURFACE ( 'NONE', #178, 2.063750000000017100, 0.7853981633974407300 ) ;
#144 = COLOUR_RGB ( '',0.7921568627450980000, 0.8196078431372548800, 0.9333333333333333500 ) ;
#145 = VERTEX_POINT ( 'NONE', #58 ) ;
#146 = ADVANCED_FACE ( 'NONE', ( #100 ), #143, .T. ) ;
#147 = DIRECTION ( 'NONE',  ( -0.0000000000000000000, 2.845898239301757900E-021, 1.000000000000000000 ) ) ;
#148 = CARTESIAN_POINT ( 'NONE',  ( 0.0000000000000000000, -2.579687500000005700, 7.341528114198768500E-021 ) ) ;
#149 = AXIS2_PLACEMENT_3D ( 'NONE', #202, #204, #186 ) ;
#150 = CARTESIAN_POINT ( 'NONE',  ( 0.0000000000000000000, 2.579687499999999900, 1.579566312197147900E-016 ) ) ;
#151 = CIRCLE ( 'NONE', #149, 2.579687500000005700 ) ;
#152 = SURFACE_STYLE_USAGE ( .BOTH. , #73 ) ;
#153 = FILL_AREA_STYLE_COLOUR ( '', #144 ) ;
#154 =( NAMED_UNIT ( * ) PLANE_ANGLE_UNIT ( ) SI_UNIT ( $, .RADIAN. ) );
#155 = DIRECTION ( 'NONE',  ( 0.0000000000000000000, 1.000000000000000000, -2.845898239303186100E-021 ) ) ;
#156 = DIRECTION ( 'NONE',  ( 0.0000000000000000000, -1.000000000000000000, 2.845898239301757500E-021 ) ) ;
#157 = APPLICATION_PROTOCOL_DEFINITION ( 'draft international standard', 'automotive_design', 1998, #29 ) ;
#158 = SURFACE_STYLE_USAGE ( .BOTH. , #205 ) ;
#159 = FACE_OUTER_BOUND ( 'NONE', #130, .T. ) ;
#160 = FACE_OUTER_BOUND ( 'NONE', #184, .T. ) ;
#161 = MANIFOLD_SOLID_BREP ( '¸ðµû±â1', #87 ) ;
#162 = CIRCLE ( 'NONE', #48, 2.579687500000011500 ) ;
#163 = DIRECTION ( 'NONE',  ( 0.0000000000000000000, -1.000000000000000000, 0.0000000000000000000 ) ) ;
#164 = EDGE_CURVE ( 'NONE', #115, #30, #151, .T. ) ;
#165 = ORIENTED_EDGE ( 'NONE', *, *, #131, .T. ) ;
#166 = CARTESIAN_POINT ( 'NONE',  ( 0.0000000000000000000, 4.495493919161574000E-037, 1.579639727478289900E-016 ) ) ;
#167 = VECTOR ( 'NONE', #54, 999.9999999999998900 ) ;
#168 = CARTESIAN_POINT ( 'NONE',  ( 0.0000000000000000000, -1.468305622839740600E-021, -0.5159374999999963900 ) ) ;
#169 =( LENGTH_UNIT ( ) NAMED_UNIT ( * ) SI_UNIT ( .MILLI., .METRE. ) );
#170 = CARTESIAN_POINT ( 'NONE',  ( 3.159206039675452100E-016, 2.579687500000011900, -92.07499999999998900 ) ) ;
#171 = PRESENTATION_STYLE_ASSIGNMENT (( #152 ) ) ;
#172 = UNCERTAINTY_MEASURE_WITH_UNIT (LENGTH_MEASURE( 1.000000000000000100E-005 ), #169, 'distance_accuracy_value', 'NONE');
#173 = STYLED_ITEM ( 'NONE', ( #171 ), #161 ) ;
#174 = APPLICATION_PROTOCOL_DEFINITION ( 'draft international standard', 'automotive_design', 1998, #14 ) ;
#175 = FACE_OUTER_BOUND ( 'NONE', #213, .T. ) ;
#176 = SURFACE_STYLE_FILL_AREA ( #125 ) ;
#177 = CIRCLE ( 'NONE', #181, 2.063750000000017100 ) ;
#178 = AXIS2_PLACEMENT_3D ( 'NONE', #183, #93, #155 ) ;
#179 = VERTEX_POINT ( 'NONE', #170 ) ;
#180 = CIRCLE ( 'NONE', #32, 2.579687500000011500 ) ;
#181 = AXIS2_PLACEMENT_3D ( 'NONE', #166, #69, #137 ) ;
#182 = DIRECTION ( 'NONE',  ( 1.131426112287699000E-016, 0.9238795325112856300, 0.3826834323650922800 ) ) ;
#183 = CARTESIAN_POINT ( 'NONE',  ( 0.0000000000000000000, 4.495493919161574000E-037, 1.579639727478289900E-016 ) ) ;
#184 = EDGE_LOOP ( 'NONE', ( #95, #209 ) ) ;
#185 = CARTESIAN_POINT ( 'NONE',  ( 0.0000000000000000000, 0.0000000000000000000, 0.0000000000000000000 ) ) ;
#186 = DIRECTION ( 'NONE',  ( 0.0000000000000000000, 1.000000000000000000, 0.0000000000000000000 ) ) ;
#187 = EDGE_CURVE ( 'NONE', #51, #145, #177, .T. ) ;
#188 = CARTESIAN_POINT ( 'NONE',  ( 0.0000000000000000000, -2.579687500000011900, -92.07499999999998900 ) ) ;
#189 = SHAPE_DEFINITION_REPRESENTATION ( #194, #136 ) ;
#190 = CARTESIAN_POINT ( 'NONE',  ( 0.0000000000000000000, -2.620360803837093300E-019, -92.07499999999998900 ) ) ;
#191 = EDGE_CURVE ( 'NONE', #104, #179, #180, .T. ) ;
#192 = EDGE_LOOP ( 'NONE', ( #79, #50, #134, #198 ) ) ;
#193 = PRESENTATION_LAYER_ASSIGNMENT (  '', '', ( #116 ) ) ;
#194 = PRODUCT_DEFINITION_SHAPE ( 'NONE', 'NONE',  #138 ) ;
#195 = EDGE_CURVE ( 'NONE', #179, #30, #103, .T. ) ;
#196 = CARTESIAN_POINT ( 'NONE',  ( 3.159206039675444700E-016, 2.579687500000005700, -0.5159374999999963900 ) ) ;
#197 = EDGE_CURVE ( 'NONE', #57, #104, #129, .T. ) ;
#198 = ORIENTED_EDGE ( 'NONE', *, *, #164, .T. ) ;
#199 = CARTESIAN_POINT ( 'NONE',  ( 2.843285435707908100E-016, -2.063750000000017100, 1.579698459703203700E-016 ) ) ;
#200 = DIRECTION ( 'NONE',  ( -0.0000000000000000000, 2.845898239301757900E-021, 1.000000000000000000 ) ) ;
#201 = CIRCLE ( 'NONE', #207, 2.063750000000017100 ) ;
#202 = CARTESIAN_POINT ( 'NONE',  ( 0.0000000000000000000, -1.468305622839740600E-021, -0.5159374999999963900 ) ) ;
#203 = DIRECTION ( 'NONE',  ( -0.0000000000000000000, 2.845898239301757900E-021, 1.000000000000000000 ) ) ;
#204 = DIRECTION ( 'NONE',  ( 0.0000000000000000000, -2.845898239301757900E-021, -1.000000000000000000 ) ) ;
#205 = SURFACE_SIDE_STYLE ('',( #98 ) ) ;
#206 = ORIENTED_EDGE ( 'NONE', *, *, #13, .F. ) ;
#207 = AXIS2_PLACEMENT_3D ( 'NONE', #41, #40, #43 ) ;
#208 = ADVANCED_FACE ( 'NONE', ( #126 ), #86, .T. ) ;
#209 = ORIENTED_EDGE ( 'NONE', *, *, #187, .T. ) ;
#210 = PRODUCT_DEFINITION_FORMATION_WITH_SPECIFIED_SOURCE ( 'ANY', '', #122, .NOT_KNOWN. ) ;
#211 = AXIS2_PLACEMENT_3D ( 'NONE', #121, #111, #109 ) ;
#212 = UNCERTAINTY_MEASURE_WITH_UNIT (LENGTH_MEASURE( 1.000000000000000100E-005 ), #141, 'distance_accuracy_value', 'NONE');
#213 = EDGE_LOOP ( 'NONE', ( #206, #42, #28 ) ) ;
#214 = FACE_OUTER_BOUND ( 'NONE', #192, .T. ) ;
ENDSEC;
END-ISO-10303-21;
