ISO-10303-21;
HEADER;
FILE_DESCRIPTION (( 'STEP AP214' ),
    '1' );
FILE_NAME ('03-0350.STEP',
    '2020-07-23T07:03:31',
    ( '' ),
    ( '' ),
    'SwSTEP 2.0',
    'SolidWorks 2014',
    '' );
FILE_SCHEMA (( 'AUTOMOTIVE_DESIGN' ));
ENDSEC;

DATA;
#1 = CARTESIAN_POINT ( 'NONE',  ( 3.402221888881247500E-016, 2.778125000000005500, -0.5556250000000109200 ) ) ;
#2 = PRODUCT ( '03-0350', '03-0350', '', ( #107 ) ) ;
#3 = AXIS2_PLACEMENT_3D ( 'NONE', #194, #133, #179 ) ;
#4 = PRODUCT_RELATED_PRODUCT_CATEGORY ( 'part', '', ( #2 ) ) ;
#5 = EDGE_CURVE ( 'NONE', #153, #96, #168, .T. ) ;
#6 = DIRECTION ( 'NONE',  ( 0.0000000000000000000, 1.000000000000000000, -1.400095437179034600E-019 ) ) ;
#7 = DIRECTION ( 'NONE',  ( -0.0000000000000000000, 1.400095437179022100E-019, 1.000000000000000000 ) ) ;
#8 =( NAMED_UNIT ( * ) SI_UNIT ( $, .STERADIAN. ) SOLID_ANGLE_UNIT ( ) );
#9 = EDGE_CURVE ( 'NONE', #152, #177, #52, .T. ) ;
#10 = CARTESIAN_POINT ( 'NONE',  ( 0.0000000000000000000, -1.349702320885548600E-017, -96.40073705296777000 ) ) ;
#11 = AXIS2_PLACEMENT_3D ( 'NONE', #55, #56, #105 ) ;
#12 = VERTEX_POINT ( 'NONE', #1 ) ;
#13 = CARTESIAN_POINT ( 'NONE',  ( 0.0000000000000000000, 0.0000000000000000000, 0.0000000000000000000 ) ) ;
#14 = LINE ( 'NONE', #84, #180 ) ;
#15 = DIRECTION ( 'NONE',  ( -0.0000000000000000000, 1.400095437179022100E-019, 1.000000000000000000 ) ) ;
#16 = DIRECTION ( 'NONE',  ( 0.0000000000000000000, 1.000000000000000000, -1.400095437179034600E-019 ) ) ;
#17 = ORIENTED_EDGE ( 'NONE', *, *, #27, .T. ) ;
#18 = FILL_AREA_STYLE ('',( #106 ) ) ;
#19 = AXIS2_PLACEMENT_3D ( 'NONE', #66, #161, #174 ) ;
#20 = EDGE_CURVE ( 'NONE', #12, #77, #83, .T. ) ;
#21 = LINE ( 'NONE', #131, #125 ) ;
#22 = CLOSED_SHELL ( 'NONE', ( #209, #33, #35, #50, #159, #26, #51 ) ) ;
#23 = CONICAL_SURFACE ( 'NONE', #38, 2.222499999999988600, 0.7853981633974533900 ) ;
#24 = AXIS2_PLACEMENT_3D ( 'NONE', #135, #67, #48 ) ;
#25 = DIRECTION ( 'NONE',  ( 1.131426112287699300E-016, 0.9238795325112858500, 0.3826834323650920600 ) ) ;
#26 = ADVANCED_FACE ( 'NONE', ( #72 ), #183, .T. ) ;
#27 = EDGE_CURVE ( 'NONE', #177, #12, #169, .T. ) ;
#28 = CARTESIAN_POINT ( 'NONE',  ( 0.0000000000000000000, -2.778125000000005500, -0.5556250000000109200 ) ) ;
#29 =( LENGTH_UNIT ( ) NAMED_UNIT ( * ) SI_UNIT ( .MILLI., .METRE. ) );
#30 = CONICAL_SURFACE ( 'NONE', #196, 2.222499999999988600, 0.7853981633974533900 ) ;
#31 = CARTESIAN_POINT ( 'NONE',  ( 3.402221888881256300E-016, 2.778125000000012600, -95.25000000000000000 ) ) ;
#32 = ORIENTED_EDGE ( 'NONE', *, *, #5, .F. ) ;
#33 = ADVANCED_FACE ( 'NONE', ( #115 ), #89, .T. ) ;
#34 = STYLED_ITEM ( 'NONE', ( #116 ), #91 ) ;
#35 = ADVANCED_FACE ( 'NONE', ( #39 ), #97, .T. ) ;
#36 =( LENGTH_UNIT ( ) NAMED_UNIT ( * ) SI_UNIT ( .MILLI., .METRE. ) );
#37 = DIRECTION ( 'NONE',  ( 0.0000000000000000000, 1.000000000000000000, -1.400095437179034600E-019 ) ) ;
#38 = AXIS2_PLACEMENT_3D ( 'NONE', #87, #162, #37 ) ;
#39 = FACE_OUTER_BOUND ( 'NONE', #61, .T. ) ;
#40 = MANIFOLD_SOLID_BREP ( '¸ðµû±â1', #22 ) ;
#41 = AXIS2_PLACEMENT_3D ( 'NONE', #122, #7, #6 ) ;
#42 = AXIS2_PLACEMENT_3D ( 'NONE', #137, #103, #160 ) ;
#43 = ORIENTED_EDGE ( 'NONE', *, *, #9, .T. ) ;
#44 = CARTESIAN_POINT ( 'NONE',  ( 0.0000000000000000000, 1.265125205090467100E-016, 903.5992629470322300 ) ) ;
#45 = CARTESIAN_POINT ( 'NONE',  ( 0.0000000000000000000, 2.222499999999988600, 1.699944052399695900E-016 ) ) ;
#46 = DIRECTION ( 'NONE',  ( -0.0000000000000000000, 1.400095437179022100E-019, 1.000000000000000000 ) ) ;
#47 = DIRECTION ( 'NONE',  ( 0.0000000000000000000, -1.000000000000000000, 0.0000000000000000000 ) ) ;
#48 = DIRECTION ( 'NONE',  ( 0.0000000000000000000, 1.000000000000000000, -1.400095437179022100E-019 ) ) ;
#49 = MECHANICAL_DESIGN_GEOMETRIC_PRESENTATION_REPRESENTATION (  '', ( #34 ), #92 ) ;
#50 = ADVANCED_FACE ( 'NONE', ( #104 ), #212, .F. ) ;
#51 = ADVANCED_FACE ( 'NONE', ( #79 ), #23, .T. ) ;
#52 = CIRCLE ( 'NONE', #42, 2.778125000000011700 ) ;
#53 = SURFACE_STYLE_USAGE ( .BOTH. , #90 ) ;
#54 =( NAMED_UNIT ( * ) PLANE_ANGLE_UNIT ( ) SI_UNIT ( $, .RADIAN. ) );
#55 = CARTESIAN_POINT ( 'NONE',  ( 0.0000000000000000000, 1.265125205090467100E-016, 903.5992629470322300 ) ) ;
#56 = DIRECTION ( 'NONE',  ( -0.0000000000000000000, 1.400095437179022100E-019, 1.000000000000000000 ) ) ;
#57 = APPLICATION_PROTOCOL_DEFINITION ( 'draft international standard', 'automotive_design', 1998, #201 ) ;
#58 = CIRCLE ( 'NONE', #19, 2.778125000000005500 ) ;
#59 = EDGE_CURVE ( 'NONE', #96, #153, #123, .T. ) ;
#60 = UNCERTAINTY_MEASURE_WITH_UNIT (LENGTH_MEASURE( 1.000000000000000100E-005 ), #36, 'distance_accuracy_value', 'NONE');
#61 = EDGE_LOOP ( 'NONE', ( #213, #139, #147 ) ) ;
#62 = VECTOR ( 'NONE', #25, 1000.000000000000100 ) ;
#63 = SHAPE_DEFINITION_REPRESENTATION ( #166, #91 ) ;
#64 = AXIS2_PLACEMENT_3D ( 'NONE', #144, #65, #214 ) ;
#65 = DIRECTION ( 'NONE',  ( 0.0000000000000000000, -1.400095437179022100E-019, -1.000000000000000000 ) ) ;
#66 = CARTESIAN_POINT ( 'NONE',  ( 0.0000000000000000000, -7.779280272826094500E-020, -0.5556250000000109200 ) ) ;
#67 = DIRECTION ( 'NONE',  ( 0.0000000000000000000, -1.400095437179022100E-019, -1.000000000000000000 ) ) ;
#68 = CIRCLE ( 'NONE', #128, 2.778125000000011700 ) ;
#69 = CARTESIAN_POINT ( 'NONE',  ( 0.0000000000000000000, -1.333590903913018500E-017, -95.25000000000000000 ) ) ;
#70 =( NAMED_UNIT ( * ) SI_UNIT ( $, .STERADIAN. ) SOLID_ANGLE_UNIT ( ) );
#71 = ORIENTED_EDGE ( 'NONE', *, *, #5, .T. ) ;
#72 = FACE_OUTER_BOUND ( 'NONE', #113, .T. ) ;
#73 = VECTOR ( 'NONE', #86, 1000.000000000000100 ) ;
#74 = MECHANICAL_DESIGN_GEOMETRIC_PRESENTATION_REPRESENTATION (  '', ( #80 ), #136 ) ;
#75 = DIRECTION ( 'NONE',  ( -0.0000000000000000000, 1.400095437179022100E-019, 1.000000000000000000 ) ) ;
#76 = FILL_AREA_STYLE_COLOUR ( '', #151 ) ;
#77 = VERTEX_POINT ( 'NONE', #28 ) ;
#78 = SURFACE_STYLE_FILL_AREA ( #148 ) ;
#79 = FACE_OUTER_BOUND ( 'NONE', #101, .T. ) ;
#80 = STYLED_ITEM ( 'NONE', ( #203 ), #40 ) ;
#81 = ORIENTED_EDGE ( 'NONE', *, *, #59, .T. ) ;
#82 = ORIENTED_EDGE ( 'NONE', *, *, #20, .T. ) ;
#83 = CIRCLE ( 'NONE', #64, 2.778125000000005500 ) ;
#84 = CARTESIAN_POINT ( 'NONE',  ( 2.721777511104978200E-016, -2.222499999999988600, 1.706167476617956600E-016 ) ) ;
#85 = DIRECTION ( 'NONE',  ( 0.0000000000000000000, -1.000000000000000000, 1.400095437179022100E-019 ) ) ;
#86 = DIRECTION ( 'NONE',  ( 0.0000000000000000000, -0.9238795325112858500, 0.3826834323650920600 ) ) ;
#87 = CARTESIAN_POINT ( 'NONE',  ( 0.0000000000000000000, 2.384440605150238700E-035, 1.703055764508826200E-016 ) ) ;
#88 = VERTEX_POINT ( 'NONE', #145 ) ;
#89 = CYLINDRICAL_SURFACE ( 'NONE', #207, 2.778125000000005500 ) ;
#90 = SURFACE_SIDE_STYLE ('',( #78 ) ) ;
#91 = ADVANCED_BREP_SHAPE_REPRESENTATION ( '03-0350', ( #40, #140 ), #208 ) ;
#92 =( GEOMETRIC_REPRESENTATION_CONTEXT ( 3 ) GLOBAL_UNCERTAINTY_ASSIGNED_CONTEXT ( ( #60 ) ) GLOBAL_UNIT_ASSIGNED_CONTEXT ( ( #36, #176, #70 ) ) REPRESENTATION_CONTEXT ( 'NONE', 'WORKASPACE' ) );
#93 = ORIENTED_EDGE ( 'NONE', *, *, #20, .F. ) ;
#94 = DIRECTION ( 'NONE',  ( 0.0000000000000000000, 0.0000000000000000000, 1.000000000000000000 ) ) ;
#95 = EDGE_CURVE ( 'NONE', #88, #177, #143, .T. ) ;
#96 = VERTEX_POINT ( 'NONE', #158 ) ;
#97 = CONICAL_SURFACE ( 'NONE', #11, 2414.213562373078300, 1.178097245096170000 ) ;
#98 = PRESENTATION_LAYER_ASSIGNMENT (  '', '', ( #34 ) ) ;
#99 = DIRECTION ( 'NONE',  ( 8.659560562354977200E-017, -0.7071067811865512400, -0.7071067811865439100 ) ) ;
#100 = CARTESIAN_POINT ( 'NONE',  ( 0.0000000000000000000, 2.222499999999988600, 1.699944052399695900E-016 ) ) ;
#101 = EDGE_LOOP ( 'NONE', ( #186, #32, #182, #185 ) ) ;
#102 = SURFACE_STYLE_USAGE ( .BOTH. , #129 ) ;
#103 = DIRECTION ( 'NONE',  ( -0.0000000000000000000, 1.400095437179022100E-019, 1.000000000000000000 ) ) ;
#104 = FACE_OUTER_BOUND ( 'NONE', #134, .T. ) ;
#105 = DIRECTION ( 'NONE',  ( 0.0000000000000000000, -1.000000000000000000, 0.0000000000000000000 ) ) ;
#106 = FILL_AREA_STYLE_COLOUR ( '', #187 ) ;
#107 = PRODUCT_CONTEXT ( 'NONE', #201, 'mechanical' ) ;
#108 = EDGE_LOOP ( 'NONE', ( #43, #17, #82, #126 ) ) ;
#109 = VECTOR ( 'NONE', #75, 1000.000000000000000 ) ;
#110 = PRESENTATION_LAYER_ASSIGNMENT (  '', '', ( #80 ) ) ;
#111 = VECTOR ( 'NONE', #189, 1000.000000000000000 ) ;
#112 = ORIENTED_EDGE ( 'NONE', *, *, #95, .F. ) ;
#113 = EDGE_LOOP ( 'NONE', ( #199, #142, #120, #202 ) ) ;
#114 = EDGE_LOOP ( 'NONE', ( #112, #171, #191 ) ) ;
#115 = FACE_OUTER_BOUND ( 'NONE', #108, .T. ) ;
#116 = PRESENTATION_STYLE_ASSIGNMENT (( #53 ) ) ;
#117 = CARTESIAN_POINT ( 'NONE',  ( 0.0000000000000000000, -2.778125000000012600, -95.25000000000000000 ) ) ;
#118 = CONICAL_SURFACE ( 'NONE', #164, 2414.213562373078300, 1.178097245096170000 ) ;
#119 = DIRECTION ( 'NONE',  ( -0.0000000000000000000, 1.400095437179022100E-019, 1.000000000000000000 ) ) ;
#120 = ORIENTED_EDGE ( 'NONE', *, *, #193, .T. ) ;
#121 = DIRECTION ( 'NONE',  ( 0.0000000000000000000, -1.000000000000000000, 1.400095437179022100E-019 ) ) ;
#122 = CARTESIAN_POINT ( 'NONE',  ( 0.0000000000000000000, 2.384440605150239800E-035, 1.703055764508826200E-016 ) ) ;
#123 = CIRCLE ( 'NONE', #41, 2.222499999999988600 ) ;
#124 = CARTESIAN_POINT ( 'NONE',  ( 0.0000000000000000000, 0.0000000000000000000, 0.0000000000000000000 ) ) ;
#125 = VECTOR ( 'NONE', #210, 1000.000000000000000 ) ;
#126 = ORIENTED_EDGE ( 'NONE', *, *, #193, .F. ) ;
#127 = APPLICATION_PROTOCOL_DEFINITION ( 'draft international standard', 'automotive_design', 1998, #198 ) ;
#128 = AXIS2_PLACEMENT_3D ( 'NONE', #69, #211, #178 ) ;
#129 = SURFACE_SIDE_STYLE ('',( #206 ) ) ;
#130 = PRODUCT_DEFINITION_CONTEXT ( 'detailed design', #198, 'design' ) ;
#131 = CARTESIAN_POINT ( 'NONE',  ( 0.0000000000000000000, -2.778125000000005500, 3.889640136412978200E-019 ) ) ;
#132 = AXIS2_PLACEMENT_3D ( 'NONE', #175, #46, #121 ) ;
#133 = DIRECTION ( 'NONE',  ( -0.0000000000000000000, 1.400095437179022100E-019, 1.000000000000000000 ) ) ;
#134 = EDGE_LOOP ( 'NONE', ( #71, #81 ) ) ;
#135 = CARTESIAN_POINT ( 'NONE',  ( 0.0000000000000000000, 2.778124999999999300, 1.699166124372413300E-016 ) ) ;
#136 =( GEOMETRIC_REPRESENTATION_CONTEXT ( 3 ) GLOBAL_UNCERTAINTY_ASSIGNED_CONTEXT ( ( #173 ) ) GLOBAL_UNIT_ASSIGNED_CONTEXT ( ( #29, #146, #8 ) ) REPRESENTATION_CONTEXT ( 'NONE', 'WORKASPACE' ) );
#137 = CARTESIAN_POINT ( 'NONE',  ( 0.0000000000000000000, -1.333590903913018500E-017, -95.25000000000000000 ) ) ;
#138 = EDGE_CURVE ( 'NONE', #77, #12, #58, .T. ) ;
#139 = ORIENTED_EDGE ( 'NONE', *, *, #95, .T. ) ;
#140 = AXIS2_PLACEMENT_3D ( 'NONE', #124, #94, #150 ) ;
#141 = FACE_OUTER_BOUND ( 'NONE', #114, .T. ) ;
#142 = ORIENTED_EDGE ( 'NONE', *, *, #172, .T. ) ;
#143 = LINE ( 'NONE', #10, #62 ) ;
#144 = CARTESIAN_POINT ( 'NONE',  ( 0.0000000000000000000, -7.779280272826094500E-020, -0.5556250000000109200 ) ) ;
#145 = CARTESIAN_POINT ( 'NONE',  ( 0.0000000000000000000, -1.349702320885548600E-017, -96.40073705296777000 ) ) ;
#146 =( NAMED_UNIT ( * ) PLANE_ANGLE_UNIT ( ) SI_UNIT ( $, .RADIAN. ) );
#147 = ORIENTED_EDGE ( 'NONE', *, *, #9, .F. ) ;
#148 = FILL_AREA_STYLE ('',( #76 ) ) ;
#149 =( LENGTH_UNIT ( ) NAMED_UNIT ( * ) SI_UNIT ( .MILLI., .METRE. ) );
#150 = DIRECTION ( 'NONE',  ( 1.000000000000000000, 0.0000000000000000000, 0.0000000000000000000 ) ) ;
#151 = COLOUR_RGB ( '',0.7921568627450980000, 0.8196078431372548800, 0.9333333333333333500 ) ;
#152 = VERTEX_POINT ( 'NONE', #117 ) ;
#153 = VERTEX_POINT ( 'NONE', #45 ) ;
#154 = LINE ( 'NONE', #188, #73 ) ;
#155 = EDGE_CURVE ( 'NONE', #96, #77, #14, .T. ) ;
#156 = ORIENTED_EDGE ( 'NONE', *, *, #155, .T. ) ;
#157 = EDGE_CURVE ( 'NONE', #88, #152, #154, .T. ) ;
#158 = CARTESIAN_POINT ( 'NONE',  ( 3.061999699993112600E-016, -2.222499999999988600, 1.706167476617956600E-016 ) ) ;
#159 = ADVANCED_FACE ( 'NONE', ( #141 ), #118, .T. ) ;
#160 = DIRECTION ( 'NONE',  ( 0.0000000000000000000, -1.000000000000000000, 0.0000000000000000000 ) ) ;
#161 = DIRECTION ( 'NONE',  ( 0.0000000000000000000, -1.400095437179022100E-019, -1.000000000000000000 ) ) ;
#162 = DIRECTION ( 'NONE',  ( 0.0000000000000000000, -1.400095437179022100E-019, -1.000000000000000000 ) ) ;
#163 = ORIENTED_EDGE ( 'NONE', *, *, #59, .F. ) ;
#164 = AXIS2_PLACEMENT_3D ( 'NONE', #44, #119, #47 ) ;
#165 = CARTESIAN_POINT ( 'NONE',  ( 3.402221888881247500E-016, 2.778125000000005500, -3.889640136412978200E-019 ) ) ;
#166 = PRODUCT_DEFINITION_SHAPE ( 'NONE', 'NONE',  #184 ) ;
#167 = DIRECTION ( 'NONE',  ( 0.0000000000000000000, -1.400095437179022100E-019, -1.000000000000000000 ) ) ;
#168 = CIRCLE ( 'NONE', #3, 2.222499999999988600 ) ;
#169 = LINE ( 'NONE', #165, #109 ) ;
#170 = PRODUCT_DEFINITION_FORMATION_WITH_SPECIFIED_SOURCE ( 'ANY', '', #2, .NOT_KNOWN. ) ;
#171 = ORIENTED_EDGE ( 'NONE', *, *, #157, .T. ) ;
#172 = EDGE_CURVE ( 'NONE', #177, #152, #68, .T. ) ;
#173 = UNCERTAINTY_MEASURE_WITH_UNIT (LENGTH_MEASURE( 1.000000000000000100E-005 ), #29, 'distance_accuracy_value', 'NONE');
#174 = DIRECTION ( 'NONE',  ( 0.0000000000000000000, 1.000000000000000000, 0.0000000000000000000 ) ) ;
#175 = CARTESIAN_POINT ( 'NONE',  ( 0.0000000000000000000, 0.0000000000000000000, 0.0000000000000000000 ) ) ;
#176 =( NAMED_UNIT ( * ) PLANE_ANGLE_UNIT ( ) SI_UNIT ( $, .RADIAN. ) );
#177 = VERTEX_POINT ( 'NONE', #31 ) ;
#178 = DIRECTION ( 'NONE',  ( 0.0000000000000000000, -1.000000000000000000, 0.0000000000000000000 ) ) ;
#179 = DIRECTION ( 'NONE',  ( 0.0000000000000000000, 1.000000000000000000, -1.400095437179034600E-019 ) ) ;
#180 = VECTOR ( 'NONE', #99, 1000.000000000000000 ) ;
#181 =( NAMED_UNIT ( * ) SI_UNIT ( $, .STERADIAN. ) SOLID_ANGLE_UNIT ( ) );
#182 = ORIENTED_EDGE ( 'NONE', *, *, #190, .T. ) ;
#183 = CYLINDRICAL_SURFACE ( 'NONE', #132, 2.778125000000005500 ) ;
#184 = PRODUCT_DEFINITION ( 'UNKNOWN', '', #170, #130 ) ;
#185 = ORIENTED_EDGE ( 'NONE', *, *, #138, .F. ) ;
#186 = ORIENTED_EDGE ( 'NONE', *, *, #155, .F. ) ;
#187 = COLOUR_RGB ( '',0.7921568627450980000, 0.8196078431372548800, 0.9333333333333333500 ) ;
#188 = CARTESIAN_POINT ( 'NONE',  ( 0.0000000000000000000, -1.349702320885548600E-017, -96.40073705296777000 ) ) ;
#189 = DIRECTION ( 'NONE',  ( 0.0000000000000000000, 0.7071067811865512400, -0.7071067811865439100 ) ) ;
#190 = EDGE_CURVE ( 'NONE', #153, #12, #204, .T. ) ;
#191 = ORIENTED_EDGE ( 'NONE', *, *, #172, .F. ) ;
#192 = EDGE_LOOP ( 'NONE', ( #163, #156, #93, #205 ) ) ;
#193 = EDGE_CURVE ( 'NONE', #152, #77, #21, .T. ) ;
#194 = CARTESIAN_POINT ( 'NONE',  ( 0.0000000000000000000, 2.384440605150239800E-035, 1.703055764508826200E-016 ) ) ;
#195 = CARTESIAN_POINT ( 'NONE',  ( 0.0000000000000000000, 2.384440605150238700E-035, 1.703055764508826200E-016 ) ) ;
#196 = AXIS2_PLACEMENT_3D ( 'NONE', #195, #167, #16 ) ;
#197 = FACE_OUTER_BOUND ( 'NONE', #192, .T. ) ;
#198 = APPLICATION_CONTEXT ( 'automotive_design' ) ;
#199 = ORIENTED_EDGE ( 'NONE', *, *, #27, .F. ) ;
#200 = UNCERTAINTY_MEASURE_WITH_UNIT (LENGTH_MEASURE( 1.000000000000000100E-005 ), #149, 'distance_accuracy_value', 'NONE');
#201 = APPLICATION_CONTEXT ( 'automotive_design' ) ;
#202 = ORIENTED_EDGE ( 'NONE', *, *, #138, .T. ) ;
#203 = PRESENTATION_STYLE_ASSIGNMENT (( #102 ) ) ;
#204 = LINE ( 'NONE', #100, #111 ) ;
#205 = ORIENTED_EDGE ( 'NONE', *, *, #190, .F. ) ;
#206 = SURFACE_STYLE_FILL_AREA ( #18 ) ;
#207 = AXIS2_PLACEMENT_3D ( 'NONE', #13, #15, #85 ) ;
#208 =( GEOMETRIC_REPRESENTATION_CONTEXT ( 3 ) GLOBAL_UNCERTAINTY_ASSIGNED_CONTEXT ( ( #200 ) ) GLOBAL_UNIT_ASSIGNED_CONTEXT ( ( #149, #54, #181 ) ) REPRESENTATION_CONTEXT ( 'NONE', 'WORKASPACE' ) );
#209 = ADVANCED_FACE ( 'NONE', ( #197 ), #30, .T. ) ;
#210 = DIRECTION ( 'NONE',  ( -0.0000000000000000000, 1.400095437179022100E-019, 1.000000000000000000 ) ) ;
#211 = DIRECTION ( 'NONE',  ( -0.0000000000000000000, 1.400095437179022100E-019, 1.000000000000000000 ) ) ;
#212 = PLANE ( 'NONE',  #24 ) ;
#213 = ORIENTED_EDGE ( 'NONE', *, *, #157, .F. ) ;
#214 = DIRECTION ( 'NONE',  ( 0.0000000000000000000, 1.000000000000000000, 0.0000000000000000000 ) ) ;
ENDSEC;
END-ISO-10303-21;
