ISO-10303-21;
HEADER;
FILE_DESCRIPTION (( 'STEP AP214' ),
    '1' );
FILE_NAME ('03-0352.STEP',
    '2020-07-23T07:04:53',
    ( '' ),
    ( '' ),
    'SwSTEP 2.0',
    'SolidWorks 2014',
    '' );
FILE_SCHEMA (( 'AUTOMOTIVE_DESIGN' ));
ENDSEC;

DATA;
#1 = CONICAL_SURFACE ( 'NONE', #141, 2414.213562373079200, 1.178097245096170200 ) ;
#2 = CARTESIAN_POINT ( 'NONE',  ( 0.0000000000000000000, 0.0000000000000000000, 0.0000000000000000000 ) ) ;
#3 = FACE_OUTER_BOUND ( 'NONE', #25, .T. ) ;
#4 = DIRECTION ( 'NONE',  ( 0.0000000000000000000, -1.000000000000000000, -9.343134889944954800E-020 ) ) ;
#5 = DIRECTION ( 'NONE',  ( 0.0000000000000000000, 0.7071067811865414700, -0.7071067811865536800 ) ) ;
#6 = PRODUCT_DEFINITION_FORMATION_WITH_SPECIFIED_SOURCE ( 'ANY', '', #45, .NOT_KNOWN. ) ;
#7 = CARTESIAN_POINT ( 'NONE',  ( 0.0000000000000000000, -3.175000000000011400, -101.5999999999999900 ) ) ;
#8 = CARTESIAN_POINT ( 'NONE',  ( 3.888253587292853500E-016, 3.175000000000006000, 2.966445327557528900E-019 ) ) ;
#9 = CARTESIAN_POINT ( 'NONE',  ( 0.0000000000000000000, -1.815038092677520300E-035, 1.942643570982644300E-016 ) ) ;
#10 = ORIENTED_EDGE ( 'NONE', *, *, #129, .F. ) ;
#11 = EDGE_CURVE ( 'NONE', #189, #162, #212, .T. ) ;
#12 = FACE_OUTER_BOUND ( 'NONE', #144, .T. ) ;
#13 = CARTESIAN_POINT ( 'NONE',  ( 0.0000000000000000000, 9.615499236855337200E-018, -102.9151280605345800 ) ) ;
#14 = VECTOR ( 'NONE', #5, 999.9999999999998900 ) ;
#15 = ORIENTED_EDGE ( 'NONE', *, *, #100, .F. ) ;
#16 = LINE ( 'NONE', #110, #14 ) ;
#17 =( GEOMETRIC_REPRESENTATION_CONTEXT ( 3 ) GLOBAL_UNCERTAINTY_ASSIGNED_CONTEXT ( ( #213 ) ) GLOBAL_UNIT_ASSIGNED_CONTEXT ( ( #155, #167, #140 ) ) REPRESENTATION_CONTEXT ( 'NONE', 'WORKASPACE' ) );
#18 = EDGE_CURVE ( 'NONE', #136, #198, #159, .T. ) ;
#19 = DIRECTION ( 'NONE',  ( 0.0000000000000000000, -1.000000000000000000, 0.0000000000000000000 ) ) ;
#20 = ORIENTED_EDGE ( 'NONE', *, *, #116, .T. ) ;
#21 = APPLICATION_PROTOCOL_DEFINITION ( 'draft international standard', 'automotive_design', 1998, #186 ) ;
#22 = CYLINDRICAL_SURFACE ( 'NONE', #197, 3.175000000000006000 ) ;
#23 = ADVANCED_FACE ( 'NONE', ( #132 ), #1, .T. ) ;
#24 = ORIENTED_EDGE ( 'NONE', *, *, #134, .T. ) ;
#25 = EDGE_LOOP ( 'NONE', ( #32, #80 ) ) ;
#26 = DIRECTION ( 'NONE',  ( -0.0000000000000000000, -9.343134889944956000E-020, 1.000000000000000000 ) ) ;
#27 = CARTESIAN_POINT ( 'NONE',  ( 0.0000000000000000000, 9.492625048184074000E-018, -101.5999999999999900 ) ) ;
#28 = STYLED_ITEM ( 'NONE', ( #177 ), #101 ) ;
#29 = CARTESIAN_POINT ( 'NONE',  ( 3.888253587292853500E-016, 3.175000000000006000, -0.6350000000000021200 ) ) ;
#30 = LINE ( 'NONE', #69, #112 ) ;
#31 = PRODUCT_DEFINITION_CONTEXT ( 'detailed design', #186, 'design' ) ;
#32 = ORIENTED_EDGE ( 'NONE', *, *, #11, .T. ) ;
#33 = CARTESIAN_POINT ( 'NONE',  ( 0.0000000000000000000, -8.381584966259422600E-017, 897.0848719394654200 ) ) ;
#34 = PRODUCT_RELATED_PRODUCT_CATEGORY ( 'part', '', ( #45 ) ) ;
#35 = ORIENTED_EDGE ( 'NONE', *, *, #81, .T. ) ;
#36 = AXIS2_PLACEMENT_3D ( 'NONE', #27, #208, #113 ) ;
#37 = EDGE_CURVE ( 'NONE', #83, #147, #207, .T. ) ;
#38 = ADVANCED_BREP_SHAPE_REPRESENTATION ( '03-0352', ( #101, #40 ), #96 ) ;
#39 = LINE ( 'NONE', #194, #196 ) ;
#40 = AXIS2_PLACEMENT_3D ( 'NONE', #2, #70, #68 ) ;
#41 = ORIENTED_EDGE ( 'NONE', *, *, #11, .F. ) ;
#42 = APPLICATION_PROTOCOL_DEFINITION ( 'draft international standard', 'automotive_design', 1998, #86 ) ;
#43 = CARTESIAN_POINT ( 'NONE',  ( 0.0000000000000000000, -1.815038092677520300E-035, 1.942643570982644300E-016 ) ) ;
#44 = FACE_OUTER_BOUND ( 'NONE', #107, .T. ) ;
#45 = PRODUCT ( '03-0352', '03-0352', '', ( #181 ) ) ;
#46 = DIRECTION ( 'NONE',  ( 0.0000000000000000000, -1.000000000000000000, 0.0000000000000000000 ) ) ;
#47 = DIRECTION ( 'NONE',  ( 0.0000000000000000000, 9.343134889944957200E-020, -1.000000000000000000 ) ) ;
#48 = DIRECTION ( 'NONE',  ( 0.0000000000000000000, 9.343134889944957200E-020, -1.000000000000000000 ) ) ;
#49 =( NAMED_UNIT ( * ) PLANE_ANGLE_UNIT ( ) SI_UNIT ( $, .RADIAN. ) );
#50 = ORIENTED_EDGE ( 'NONE', *, *, #64, .T. ) ;
#51 = ADVANCED_FACE ( 'NONE', ( #12 ), #97, .T. ) ;
#52 = DIRECTION ( 'NONE',  ( -0.0000000000000000000, -9.343134889944956000E-020, 1.000000000000000000 ) ) ;
#53 = DIRECTION ( 'NONE',  ( 0.0000000000000000000, 1.000000000000000000, 9.343134889944866900E-020 ) ) ;
#54 = CARTESIAN_POINT ( 'NONE',  ( 0.0000000000000000000, 5.932890655115066200E-020, -0.6350000000000021200 ) ) ;
#55 = AXIS2_PLACEMENT_3D ( 'NONE', #43, #153, #53 ) ;
#56 = DIRECTION ( 'NONE',  ( 0.0000000000000000000, 9.343134889944957200E-020, -1.000000000000000000 ) ) ;
#57 = CARTESIAN_POINT ( 'NONE',  ( 0.0000000000000000000, 0.0000000000000000000, 0.0000000000000000000 ) ) ;
#58 = ORIENTED_EDGE ( 'NONE', *, *, #145, .F. ) ;
#59 = UNCERTAINTY_MEASURE_WITH_UNIT (LENGTH_MEASURE( 1.000000000000000100E-005 ), #135, 'distance_accuracy_value', 'NONE');
#60 = CARTESIAN_POINT ( 'NONE',  ( 0.0000000000000000000, 0.0000000000000000000, 0.0000000000000000000 ) ) ;
#61 = DIRECTION ( 'NONE',  ( -0.0000000000000000000, -9.343134889944956000E-020, 1.000000000000000000 ) ) ;
#62 = CIRCLE ( 'NONE', #36, 3.175000000000011800 ) ;
#63 = AXIS2_PLACEMENT_3D ( 'NONE', #57, #169, #4 ) ;
#64 = EDGE_CURVE ( 'NONE', #91, #147, #130, .T. ) ;
#65 = COLOUR_RGB ( '',0.7921568627450980000, 0.8196078431372548800, 0.9333333333333333500 ) ;
#66 = SURFACE_STYLE_FILL_AREA ( #123 ) ;
#67 = ORIENTED_EDGE ( 'NONE', *, *, #211, .F. ) ;
#68 = DIRECTION ( 'NONE',  ( 1.000000000000000000, 0.0000000000000000000, 0.0000000000000000000 ) ) ;
#69 = CARTESIAN_POINT ( 'NONE',  ( 0.0000000000000000000, 9.615499236855337200E-018, -102.9151280605345800 ) ) ;
#70 = DIRECTION ( 'NONE',  ( 0.0000000000000000000, 0.0000000000000000000, 1.000000000000000000 ) ) ;
#71 = ORIENTED_EDGE ( 'NONE', *, *, #211, .T. ) ;
#72 =( NAMED_UNIT ( * ) PLANE_ANGLE_UNIT ( ) SI_UNIT ( $, .RADIAN. ) );
#73 = VECTOR ( 'NONE', #152, 1000.000000000000200 ) ;
#74 = CARTESIAN_POINT ( 'NONE',  ( 0.0000000000000000000, -3.175000000000006000, -2.966445327557528900E-019 ) ) ;
#75 = STYLED_ITEM ( 'NONE', ( #143 ), #38 ) ;
#76 = DIRECTION ( 'NONE',  ( 0.0000000000000000000, 1.000000000000000000, 9.343134889944956000E-020 ) ) ;
#77 = DIRECTION ( 'NONE',  ( 8.659560562354858900E-017, -0.7071067811865414700, -0.7071067811865536800 ) ) ;
#78 = AXIS2_PLACEMENT_3D ( 'NONE', #204, #127, #124 ) ;
#79 = CARTESIAN_POINT ( 'NONE',  ( 0.0000000000000000000, 5.932890655115066200E-020, -0.6350000000000021200 ) ) ;
#80 = ORIENTED_EDGE ( 'NONE', *, *, #146, .T. ) ;
#81 = EDGE_CURVE ( 'NONE', #83, #198, #103, .T. ) ;
#82 = LINE ( 'NONE', #8, #214 ) ;
#83 = VERTEX_POINT ( 'NONE', #7 ) ;
#84 = PRESENTATION_LAYER_ASSIGNMENT (  '', '', ( #75 ) ) ;
#85 = PRODUCT_DEFINITION ( 'UNKNOWN', '', #6, #31 ) ;
#86 = APPLICATION_CONTEXT ( 'automotive_design' ) ;
#87 = CARTESIAN_POINT ( 'NONE',  ( 3.888253587292860400E-016, 3.175000000000011400, -101.5999999999999900 ) ) ;
#88 = DIRECTION ( 'NONE',  ( 0.0000000000000000000, 1.000000000000000000, 0.0000000000000000000 ) ) ;
#89 = SURFACE_STYLE_FILL_AREA ( #139 ) ;
#90 = DIRECTION ( 'NONE',  ( 0.0000000000000000000, 1.000000000000000000, 9.343134889944866900E-020 ) ) ;
#91 = VERTEX_POINT ( 'NONE', #29 ) ;
#92 = DIRECTION ( 'NONE',  ( 0.0000000000000000000, -1.000000000000000000, 0.0000000000000000000 ) ) ;
#93 = CARTESIAN_POINT ( 'NONE',  ( 3.499428228563574200E-016, -2.540000000000014200, 1.940270414720598400E-016 ) ) ;
#94 = DIRECTION ( 'NONE',  ( 0.0000000000000000000, 9.343134889944956000E-020, -1.000000000000000000 ) ) ;
#95 = CARTESIAN_POINT ( 'NONE',  ( 0.0000000000000000000, -1.815038092677520100E-035, 1.942643570982644300E-016 ) ) ;
#96 =( GEOMETRIC_REPRESENTATION_CONTEXT ( 3 ) GLOBAL_UNCERTAINTY_ASSIGNED_CONTEXT ( ( #176 ) ) GLOBAL_UNIT_ASSIGNED_CONTEXT ( ( #137, #72, #133 ) ) REPRESENTATION_CONTEXT ( 'NONE', 'WORKASPACE' ) );
#97 = CONICAL_SURFACE ( 'NONE', #55, 2.540000000000014200, 0.7853981633974397300 ) ;
#98 = ORIENTED_EDGE ( 'NONE', *, *, #146, .F. ) ;
#99 = SHAPE_DEFINITION_REPRESENTATION ( #201, #38 ) ;
#100 = EDGE_CURVE ( 'NONE', #189, #91, #16, .T. ) ;
#101 = MANIFOLD_SOLID_BREP ( '¸ðµû±â1', #117 ) ;
#102 = EDGE_LOOP ( 'NONE', ( #67, #178, #118 ) ) ;
#103 = CIRCLE ( 'NONE', #160, 3.175000000000011800 ) ;
#104 = SURFACE_SIDE_STYLE ('',( #66 ) ) ;
#105 = ADVANCED_FACE ( 'NONE', ( #148 ), #185, .T. ) ;
#106 = MECHANICAL_DESIGN_GEOMETRIC_PRESENTATION_REPRESENTATION (  '', ( #75 ), #128 ) ;
#107 = EDGE_LOOP ( 'NONE', ( #98, #193, #151, #15 ) ) ;
#108 = EDGE_LOOP ( 'NONE', ( #10, #20, #149, #24 ) ) ;
#109 = AXIS2_PLACEMENT_3D ( 'NONE', #79, #48, #195 ) ;
#110 = CARTESIAN_POINT ( 'NONE',  ( 0.0000000000000000000, 2.540000000000014200, 1.945016727244690400E-016 ) ) ;
#111 = CARTESIAN_POINT ( 'NONE',  ( 0.0000000000000000000, 9.492625048184074000E-018, -101.5999999999999900 ) ) ;
#112 = VECTOR ( 'NONE', #165, 1000.000000000000200 ) ;
#113 = DIRECTION ( 'NONE',  ( 0.0000000000000000000, -1.000000000000000000, 0.0000000000000000000 ) ) ;
#114 = ORIENTED_EDGE ( 'NONE', *, *, #18, .F. ) ;
#115 = FACE_OUTER_BOUND ( 'NONE', #120, .T. ) ;
#116 = EDGE_CURVE ( 'NONE', #198, #83, #62, .T. ) ;
#117 = CLOSED_SHELL ( 'NONE', ( #180, #150, #206, #121, #23, #105, #51 ) ) ;
#118 = ORIENTED_EDGE ( 'NONE', *, *, #81, .F. ) ;
#119 = AXIS2_PLACEMENT_3D ( 'NONE', #192, #94, #76 ) ;
#120 = EDGE_LOOP ( 'NONE', ( #35, #182, #50, #125 ) ) ;
#121 = ADVANCED_FACE ( 'NONE', ( #3 ), #190, .F. ) ;
#122 =( NAMED_UNIT ( * ) SI_UNIT ( $, .STERADIAN. ) SOLID_ANGLE_UNIT ( ) );
#123 = FILL_AREA_STYLE ('',( #203 ) ) ;
#124 = DIRECTION ( 'NONE',  ( 0.0000000000000000000, 1.000000000000000000, 9.343134889944866900E-020 ) ) ;
#125 = ORIENTED_EDGE ( 'NONE', *, *, #37, .F. ) ;
#126 = FILL_AREA_STYLE_COLOUR ( '', #65 ) ;
#127 = DIRECTION ( 'NONE',  ( -0.0000000000000000000, -9.343134889944956000E-020, 1.000000000000000000 ) ) ;
#128 =( GEOMETRIC_REPRESENTATION_CONTEXT ( 3 ) GLOBAL_UNCERTAINTY_ASSIGNED_CONTEXT ( ( #59 ) ) GLOBAL_UNIT_ASSIGNED_CONTEXT ( ( #135, #49, #122 ) ) REPRESENTATION_CONTEXT ( 'NONE', 'WORKASPACE' ) );
#129 = EDGE_CURVE ( 'NONE', #198, #91, #82, .T. ) ;
#130 = CIRCLE ( 'NONE', #184, 3.175000000000006000 ) ;
#131 = CONICAL_SURFACE ( 'NONE', #168, 2.540000000000014200, 0.7853981633974397300 ) ;
#132 = FACE_OUTER_BOUND ( 'NONE', #210, .T. ) ;
#133 =( NAMED_UNIT ( * ) SI_UNIT ( $, .STERADIAN. ) SOLID_ANGLE_UNIT ( ) );
#134 = EDGE_CURVE ( 'NONE', #147, #91, #161, .T. ) ;
#135 =( LENGTH_UNIT ( ) NAMED_UNIT ( * ) SI_UNIT ( .MILLI., .METRE. ) );
#136 = VERTEX_POINT ( 'NONE', #13 ) ;
#137 =( LENGTH_UNIT ( ) NAMED_UNIT ( * ) SI_UNIT ( .MILLI., .METRE. ) );
#138 = AXIS2_PLACEMENT_3D ( 'NONE', #95, #209, #172 ) ;
#139 = FILL_AREA_STYLE ('',( #126 ) ) ;
#140 =( NAMED_UNIT ( * ) SI_UNIT ( $, .STERADIAN. ) SOLID_ANGLE_UNIT ( ) );
#141 = AXIS2_PLACEMENT_3D ( 'NONE', #33, #191, #92 ) ;
#142 = CARTESIAN_POINT ( 'NONE',  ( 0.0000000000000000000, -3.175000000000006000, -0.6350000000000021200 ) ) ;
#143 = PRESENTATION_STYLE_ASSIGNMENT (( #202 ) ) ;
#144 = EDGE_LOOP ( 'NONE', ( #58, #41, #175, #200 ) ) ;
#145 = EDGE_CURVE ( 'NONE', #162, #147, #39, .T. ) ;
#146 = EDGE_CURVE ( 'NONE', #162, #189, #205, .T. ) ;
#147 = VERTEX_POINT ( 'NONE', #142 ) ;
#148 = FACE_OUTER_BOUND ( 'NONE', #108, .T. ) ;
#149 = ORIENTED_EDGE ( 'NONE', *, *, #37, .T. ) ;
#150 = ADVANCED_FACE ( 'NONE', ( #115 ), #22, .T. ) ;
#151 = ORIENTED_EDGE ( 'NONE', *, *, #64, .F. ) ;
#152 = DIRECTION ( 'NONE',  ( 1.131426112287699300E-016, 0.9238795325112858500, 0.3826834323650919500 ) ) ;
#153 = DIRECTION ( 'NONE',  ( 0.0000000000000000000, 9.343134889944957200E-020, -1.000000000000000000 ) ) ;
#154 = COLOUR_RGB ( '',0.7921568627450980000, 0.8196078431372548800, 0.9333333333333333500 ) ;
#155 =( LENGTH_UNIT ( ) NAMED_UNIT ( * ) SI_UNIT ( .MILLI., .METRE. ) );
#156 = SURFACE_STYLE_USAGE ( .BOTH. , #170 ) ;
#157 = FACE_OUTER_BOUND ( 'NONE', #102, .T. ) ;
#158 = ORIENTED_EDGE ( 'NONE', *, *, #116, .F. ) ;
#159 = LINE ( 'NONE', #166, #73 ) ;
#160 = AXIS2_PLACEMENT_3D ( 'NONE', #111, #188, #46 ) ;
#161 = CIRCLE ( 'NONE', #109, 3.175000000000006000 ) ;
#162 = VERTEX_POINT ( 'NONE', #93 ) ;
#163 = CARTESIAN_POINT ( 'NONE',  ( 0.0000000000000000000, 2.540000000000014200, 1.945016727244690400E-016 ) ) ;
#164 = VECTOR ( 'NONE', #26, 1000.000000000000000 ) ;
#165 = DIRECTION ( 'NONE',  ( 0.0000000000000000000, -0.9238795325112858500, 0.3826834323650919500 ) ) ;
#166 = CARTESIAN_POINT ( 'NONE',  ( 1.842643704512397200E-049, 9.615499236855340300E-018, -102.9151280605345800 ) ) ;
#167 =( NAMED_UNIT ( * ) PLANE_ANGLE_UNIT ( ) SI_UNIT ( $, .RADIAN. ) );
#168 = AXIS2_PLACEMENT_3D ( 'NONE', #9, #56, #90 ) ;
#169 = DIRECTION ( 'NONE',  ( -0.0000000000000000000, -9.343134889944956000E-020, 1.000000000000000000 ) ) ;
#170 = SURFACE_SIDE_STYLE ('',( #89 ) ) ;
#171 = DIRECTION ( 'NONE',  ( -0.0000000000000000000, -9.343134889944956000E-020, 1.000000000000000000 ) ) ;
#172 = DIRECTION ( 'NONE',  ( 0.0000000000000000000, 1.000000000000000000, 9.343134889944866900E-020 ) ) ;
#173 = DIRECTION ( 'NONE',  ( 0.0000000000000000000, -1.000000000000000000, -9.343134889944954800E-020 ) ) ;
#174 = PRESENTATION_LAYER_ASSIGNMENT (  '', '', ( #28 ) ) ;
#175 = ORIENTED_EDGE ( 'NONE', *, *, #100, .T. ) ;
#176 = UNCERTAINTY_MEASURE_WITH_UNIT (LENGTH_MEASURE( 1.000000000000000100E-005 ), #137, 'distance_accuracy_value', 'NONE');
#177 = PRESENTATION_STYLE_ASSIGNMENT (( #156 ) ) ;
#178 = ORIENTED_EDGE ( 'NONE', *, *, #18, .T. ) ;
#179 = AXIS2_PLACEMENT_3D ( 'NONE', #183, #52, #19 ) ;
#180 = ADVANCED_FACE ( 'NONE', ( #44 ), #131, .T. ) ;
#181 = PRODUCT_CONTEXT ( 'NONE', #86, 'mechanical' ) ;
#182 = ORIENTED_EDGE ( 'NONE', *, *, #129, .T. ) ;
#183 = CARTESIAN_POINT ( 'NONE',  ( 0.0000000000000000000, -8.381584966259422600E-017, 897.0848719394654200 ) ) ;
#184 = AXIS2_PLACEMENT_3D ( 'NONE', #54, #47, #88 ) ;
#185 = CYLINDRICAL_SURFACE ( 'NONE', #63, 3.175000000000006000 ) ;
#186 = APPLICATION_CONTEXT ( 'automotive_design' ) ;
#187 = MECHANICAL_DESIGN_GEOMETRIC_PRESENTATION_REPRESENTATION (  '', ( #28 ), #17 ) ;
#188 = DIRECTION ( 'NONE',  ( -0.0000000000000000000, -9.343134889944956000E-020, 1.000000000000000000 ) ) ;
#189 = VERTEX_POINT ( 'NONE', #163 ) ;
#190 = PLANE ( 'NONE',  #119 ) ;
#191 = DIRECTION ( 'NONE',  ( -0.0000000000000000000, -9.343134889944956000E-020, 1.000000000000000000 ) ) ;
#192 = CARTESIAN_POINT ( 'NONE',  ( 0.0000000000000000000, 3.174999999999999800, 1.945610016310202000E-016 ) ) ;
#193 = ORIENTED_EDGE ( 'NONE', *, *, #145, .T. ) ;
#194 = CARTESIAN_POINT ( 'NONE',  ( 3.110602869834294400E-016, -2.540000000000014200, 1.940270414720598400E-016 ) ) ;
#195 = DIRECTION ( 'NONE',  ( 0.0000000000000000000, 1.000000000000000000, 0.0000000000000000000 ) ) ;
#196 = VECTOR ( 'NONE', #77, 999.9999999999998900 ) ;
#197 = AXIS2_PLACEMENT_3D ( 'NONE', #60, #61, #173 ) ;
#198 = VERTEX_POINT ( 'NONE', #87 ) ;
#199 = CONICAL_SURFACE ( 'NONE', #179, 2414.213562373079200, 1.178097245096170200 ) ;
#200 = ORIENTED_EDGE ( 'NONE', *, *, #134, .F. ) ;
#201 = PRODUCT_DEFINITION_SHAPE ( 'NONE', 'NONE',  #85 ) ;
#202 = SURFACE_STYLE_USAGE ( .BOTH. , #104 ) ;
#203 = FILL_AREA_STYLE_COLOUR ( '', #154 ) ;
#204 = CARTESIAN_POINT ( 'NONE',  ( 0.0000000000000000000, -1.815038092677520100E-035, 1.942643570982644300E-016 ) ) ;
#205 = CIRCLE ( 'NONE', #138, 2.540000000000014200 ) ;
#206 = ADVANCED_FACE ( 'NONE', ( #157 ), #199, .T. ) ;
#207 = LINE ( 'NONE', #74, #164 ) ;
#208 = DIRECTION ( 'NONE',  ( -0.0000000000000000000, -9.343134889944956000E-020, 1.000000000000000000 ) ) ;
#209 = DIRECTION ( 'NONE',  ( -0.0000000000000000000, -9.343134889944956000E-020, 1.000000000000000000 ) ) ;
#210 = EDGE_LOOP ( 'NONE', ( #114, #71, #158 ) ) ;
#211 = EDGE_CURVE ( 'NONE', #136, #83, #30, .T. ) ;
#212 = CIRCLE ( 'NONE', #78, 2.540000000000014200 ) ;
#213 = UNCERTAINTY_MEASURE_WITH_UNIT (LENGTH_MEASURE( 1.000000000000000100E-005 ), #155, 'distance_accuracy_value', 'NONE');
#214 = VECTOR ( 'NONE', #171, 1000.000000000000000 ) ;
ENDSEC;
END-ISO-10303-21;
