ISO-10303-21;
HEADER;
FILE_DESCRIPTION (( 'STEP AP214' ),
    '1' );
FILE_NAME ('03-0353.STEP',
    '2020-07-23T07:05:34',
    ( '' ),
    ( '' ),
    'SwSTEP 2.0',
    'SolidWorks 2014',
    '' );
FILE_SCHEMA (( 'AUTOMOTIVE_DESIGN' ));
ENDSEC;

DATA;
#1 = EDGE_CURVE ( 'NONE', #133, #125, #11, .T. ) ;
#2 = VERTEX_POINT ( 'NONE', #70 ) ;
#3 = DIRECTION ( 'NONE',  ( -0.0000000000000000000, 6.212060508591863000E-020, 1.000000000000000000 ) ) ;
#4 = DIRECTION ( 'NONE',  ( 0.0000000000000000000, -1.000000000000000000, 6.212060508591863000E-020 ) ) ;
#5 = STYLED_ITEM ( 'NONE', ( #26 ), #60 ) ;
#6 = DIRECTION ( 'NONE',  ( -0.0000000000000000000, 6.212060508591863000E-020, 1.000000000000000000 ) ) ;
#7 = LINE ( 'NONE', #211, #89 ) ;
#8 = CARTESIAN_POINT ( 'NONE',  ( 0.0000000000000000000, 2.698750000000013700, 2.065006038313165600E-016 ) ) ;
#9 = CARTESIAN_POINT ( 'NONE',  ( 0.0000000000000000000, -4.191199574390589700E-020, -0.6746875000000027700 ) ) ;
#10 = APPLICATION_CONTEXT ( 'automotive_design' ) ;
#11 = LINE ( 'NONE', #102, #208 ) ;
#12 = VECTOR ( 'NONE', #57, 1000.000000000000100 ) ;
#13 = ORIENTED_EDGE ( 'NONE', *, *, #33, .F. ) ;
#14 = EDGE_CURVE ( 'NONE', #48, #184, #201, .T. ) ;
#15 = AXIS2_PLACEMENT_3D ( 'NONE', #65, #176, #30 ) ;
#16 = CIRCLE ( 'NONE', #96, 2.698750000000013700 ) ;
#17 = ORIENTED_EDGE ( 'NONE', *, *, #154, .F. ) ;
#18 = ORIENTED_EDGE ( 'NONE', *, *, #199, .T. ) ;
#19 = SURFACE_STYLE_USAGE ( .BOTH. , #123 ) ;
#20 = FACE_OUTER_BOUND ( 'NONE', #34, .T. ) ;
#21 = COLOUR_RGB ( '',0.7921568627450980000, 0.8196078431372548800, 0.9333333333333333500 ) ;
#22 = CARTESIAN_POINT ( 'NONE',  ( 4.131269436498667100E-016, 3.373437500000014300, -104.7749999999999900 ) ) ;
#23 = FILL_AREA_STYLE_COLOUR ( '', #21 ) ;
#24 = DIRECTION ( 'NONE',  ( -0.0000000000000000000, 6.212060508591863000E-020, 1.000000000000000000 ) ) ;
#25 = AXIS2_PLACEMENT_3D ( 'NONE', #62, #144, #213 ) ;
#26 = PRESENTATION_STYLE_ASSIGNMENT (( #80 ) ) ;
#27 = ORIENTED_EDGE ( 'NONE', *, *, #49, .F. ) ;
#28 = DIRECTION ( 'NONE',  ( 0.0000000000000000000, -1.000000000000000000, 6.212060508591863000E-020 ) ) ;
#29 = LINE ( 'NONE', #8, #12 ) ;
#30 = DIRECTION ( 'NONE',  ( 0.0000000000000000000, -1.000000000000000000, 0.0000000000000000000 ) ) ;
#31 = VERTEX_POINT ( 'NONE', #86 ) ;
#32 = ORIENTED_EDGE ( 'NONE', *, *, #1, .T. ) ;
#33 = EDGE_CURVE ( 'NONE', #48, #133, #179, .T. ) ;
#34 = EDGE_LOOP ( 'NONE', ( #17, #142, #55, #94 ) ) ;
#35 = MANIFOLD_SOLID_BREP ( '¸ðµû±â1', #118 ) ;
#36 = CARTESIAN_POINT ( 'NONE',  ( 0.0000000000000000000, -6.595488983193370100E-018, -106.1723235643179900 ) ) ;
#37 = EDGE_CURVE ( 'NONE', #133, #184, #74, .T. ) ;
#38 = CARTESIAN_POINT ( 'NONE',  ( 3.305015549198936500E-016, -2.698750000000013700, 2.068358997972678000E-016 ) ) ;
#39 = DIRECTION ( 'NONE',  ( 0.0000000000000000000, -6.212060508591863000E-020, -1.000000000000000000 ) ) ;
#40 = ADVANCED_FACE ( 'NONE', ( #100 ), #53, .F. ) ;
#41 = ORIENTED_EDGE ( 'NONE', *, *, #37, .T. ) ;
#42 = CARTESIAN_POINT ( 'NONE',  ( 4.131269436498657700E-016, 3.373437500000006800, -0.6746875000000027700 ) ) ;
#43 =( NAMED_UNIT ( * ) SI_UNIT ( $, .STERADIAN. ) SOLID_ANGLE_UNIT ( ) );
#44 =( GEOMETRIC_REPRESENTATION_CONTEXT ( 3 ) GLOBAL_UNCERTAINTY_ASSIGNED_CONTEXT ( ( #119 ) ) GLOBAL_UNIT_ASSIGNED_CONTEXT ( ( #113, #126, #210 ) ) REPRESENTATION_CONTEXT ( 'NONE', 'WORKASPACE' ) );
#45 = DIRECTION ( 'NONE',  ( 0.0000000000000000000, -1.000000000000000000, 0.0000000000000000000 ) ) ;
#46 = SURFACE_STYLE_FILL_AREA ( #64 ) ;
#47 = ORIENTED_EDGE ( 'NONE', *, *, #37, .F. ) ;
#48 = VERTEX_POINT ( 'NONE', #36 ) ;
#49 = EDGE_CURVE ( 'NONE', #125, #31, #203, .T. ) ;
#50 = FACE_OUTER_BOUND ( 'NONE', #69, .T. ) ;
#51 = ORIENTED_EDGE ( 'NONE', *, *, #84, .T. ) ;
#52 = DIRECTION ( 'NONE',  ( 0.0000000000000000000, 1.000000000000000000, -6.212060508591637900E-020 ) ) ;
#53 = PLANE ( 'NONE',  #75 ) ;
#54 = CYLINDRICAL_SURFACE ( 'NONE', #178, 3.373437500000006800 ) ;
#55 = ORIENTED_EDGE ( 'NONE', *, *, #116, .T. ) ;
#56 = CARTESIAN_POINT ( 'NONE',  ( 9.213218522561986100E-050, -6.595488983193370100E-018, -106.1723235643179900 ) ) ;
#57 = DIRECTION ( 'NONE',  ( 0.0000000000000000000, 0.7071067811865422400, -0.7071067811865526800 ) ) ;
#58 = DIRECTION ( 'NONE',  ( 0.0000000000000000000, 0.0000000000000000000, 1.000000000000000000 ) ) ;
#59 = AXIS2_PLACEMENT_3D ( 'NONE', #111, #58, #160 ) ;
#60 = ADVANCED_BREP_SHAPE_REPRESENTATION ( '03-0353', ( #35, #59 ), #115 ) ;
#61 = SURFACE_SIDE_STYLE ('',( #46 ) ) ;
#62 = CARTESIAN_POINT ( 'NONE',  ( 0.0000000000000000000, 1.283835685475283100E-035, 2.066682518142921800E-016 ) ) ;
#63 = ADVANCED_FACE ( 'NONE', ( #20 ), #194, .T. ) ;
#64 = FILL_AREA_STYLE ('',( #92 ) ) ;
#65 = CARTESIAN_POINT ( 'NONE',  ( 0.0000000000000000000, 5.552511610272525600E-017, 893.8276764356820600 ) ) ;
#66 =( GEOMETRIC_REPRESENTATION_CONTEXT ( 3 ) GLOBAL_UNCERTAINTY_ASSIGNED_CONTEXT ( ( #137 ) ) GLOBAL_UNIT_ASSIGNED_CONTEXT ( ( #209, #88, #205 ) ) REPRESENTATION_CONTEXT ( 'NONE', 'WORKASPACE' ) );
#67 = VERTEX_POINT ( 'NONE', #158 ) ;
#68 = AXIS2_PLACEMENT_3D ( 'NONE', #9, #39, #139 ) ;
#69 = EDGE_LOOP ( 'NONE', ( #106, #79, #27, #136 ) ) ;
#70 = CARTESIAN_POINT ( 'NONE',  ( 3.718142492848796900E-016, -2.698750000000013700, 2.068358997972678000E-016 ) ) ;
#71 = CYLINDRICAL_SURFACE ( 'NONE', #85, 3.373437500000006800 ) ;
#72 = ORIENTED_EDGE ( 'NONE', *, *, #1, .F. ) ;
#73 = EDGE_CURVE ( 'NONE', #67, #2, #16, .T. ) ;
#74 = CIRCLE ( 'NONE', #105, 3.373437500000013400 ) ;
#75 = AXIS2_PLACEMENT_3D ( 'NONE', #107, #104, #91 ) ;
#76 = DIRECTION ( 'NONE',  ( 0.0000000000000000000, -1.000000000000000000, 0.0000000000000000000 ) ) ;
#77 = DIRECTION ( 'NONE',  ( 0.0000000000000000000, -6.212060508591863000E-020, -1.000000000000000000 ) ) ;
#78 = FACE_OUTER_BOUND ( 'NONE', #101, .T. ) ;
#79 = ORIENTED_EDGE ( 'NONE', *, *, #154, .T. ) ;
#80 = SURFACE_STYLE_USAGE ( .BOTH. , #61 ) ;
#81 = PRODUCT_RELATED_PRODUCT_CATEGORY ( 'part', '', ( #190 ) ) ;
#82 = APPLICATION_CONTEXT ( 'automotive_design' ) ;
#83 = DIRECTION ( 'NONE',  ( -0.0000000000000000000, 6.212060508591863000E-020, 1.000000000000000000 ) ) ;
#84 = EDGE_CURVE ( 'NONE', #31, #125, #212, .T. ) ;
#85 = AXIS2_PLACEMENT_3D ( 'NONE', #147, #24, #28 ) ;
#86 = CARTESIAN_POINT ( 'NONE',  ( 0.0000000000000000000, -3.373437500000006800, -0.6746875000000027700 ) ) ;
#87 = CARTESIAN_POINT ( 'NONE',  ( 0.0000000000000000000, -4.191199574390589700E-020, -0.6746875000000027700 ) ) ;
#88 =( NAMED_UNIT ( * ) PLANE_ANGLE_UNIT ( ) SI_UNIT ( $, .RADIAN. ) );
#89 = VECTOR ( 'NONE', #83, 1000.000000000000000 ) ;
#90 = ORIENTED_EDGE ( 'NONE', *, *, #49, .T. ) ;
#91 = DIRECTION ( 'NONE',  ( 0.0000000000000000000, 1.000000000000000000, -6.212060508591863000E-020 ) ) ;
#92 = FILL_AREA_STYLE_COLOUR ( '', #163 ) ;
#93 = MECHANICAL_DESIGN_GEOMETRIC_PRESENTATION_REPRESENTATION (  '', ( #206 ), #66 ) ;
#94 = ORIENTED_EDGE ( 'NONE', *, *, #84, .F. ) ;
#95 = CARTESIAN_POINT ( 'NONE',  ( 0.0000000000000000000, -6.508686397877123600E-018, -104.7749999999999900 ) ) ;
#96 = AXIS2_PLACEMENT_3D ( 'NONE', #168, #6, #108 ) ;
#97 = VECTOR ( 'NONE', #167, 999.9999999999998900 ) ;
#98 = UNCERTAINTY_MEASURE_WITH_UNIT (LENGTH_MEASURE( 1.000000000000000100E-005 ), #192, 'distance_accuracy_value', 'NONE');
#99 = EDGE_LOOP ( 'NONE', ( #72, #41, #18, #51 ) ) ;
#100 = FACE_OUTER_BOUND ( 'NONE', #112, .T. ) ;
#101 = EDGE_LOOP ( 'NONE', ( #197, #152, #149 ) ) ;
#102 = CARTESIAN_POINT ( 'NONE',  ( 4.131269436498657700E-016, 3.373437500000006800, -2.095599787195290500E-019 ) ) ;
#103 = DIRECTION ( 'NONE',  ( -0.0000000000000000000, 6.212060508591863000E-020, 1.000000000000000000 ) ) ;
#104 = DIRECTION ( 'NONE',  ( 0.0000000000000000000, -6.212060508591863000E-020, -1.000000000000000000 ) ) ;
#105 = AXIS2_PLACEMENT_3D ( 'NONE', #109, #204, #159 ) ;
#106 = ORIENTED_EDGE ( 'NONE', *, *, #186, .F. ) ;
#107 = CARTESIAN_POINT ( 'NONE',  ( 0.0000000000000000000, 3.373437499999999200, 2.064586918355726500E-016 ) ) ;
#108 = DIRECTION ( 'NONE',  ( 0.0000000000000000000, 1.000000000000000000, -6.212060508591637900E-020 ) ) ;
#109 = CARTESIAN_POINT ( 'NONE',  ( 0.0000000000000000000, -6.508686397877123600E-018, -104.7749999999999900 ) ) ;
#110 = SURFACE_STYLE_FILL_AREA ( #189 ) ;
#111 = CARTESIAN_POINT ( 'NONE',  ( 0.0000000000000000000, 0.0000000000000000000, 0.0000000000000000000 ) ) ;
#112 = EDGE_LOOP ( 'NONE', ( #162, #148 ) ) ;
#113 =( LENGTH_UNIT ( ) NAMED_UNIT ( * ) SI_UNIT ( .MILLI., .METRE. ) );
#114 = ORIENTED_EDGE ( 'NONE', *, *, #199, .F. ) ;
#115 =( GEOMETRIC_REPRESENTATION_CONTEXT ( 3 ) GLOBAL_UNCERTAINTY_ASSIGNED_CONTEXT ( ( #98 ) ) GLOBAL_UNIT_ASSIGNED_CONTEXT ( ( #192, #195, #43 ) ) REPRESENTATION_CONTEXT ( 'NONE', 'WORKASPACE' ) );
#116 = EDGE_CURVE ( 'NONE', #67, #125, #29, .T. ) ;
#117 = LINE ( 'NONE', #38, #200 ) ;
#118 = CLOSED_SHELL ( 'NONE', ( #130, #191, #172, #40, #127, #129, #63 ) ) ;
#119 = UNCERTAINTY_MEASURE_WITH_UNIT (LENGTH_MEASURE( 1.000000000000000100E-005 ), #113, 'distance_accuracy_value', 'NONE');
#120 = PRESENTATION_STYLE_ASSIGNMENT (( #19 ) ) ;
#121 = DIRECTION ( 'NONE',  ( 0.0000000000000000000, -6.212060508591863000E-020, -1.000000000000000000 ) ) ;
#122 = DIRECTION ( 'NONE',  ( -0.0000000000000000000, 6.212060508591863000E-020, 1.000000000000000000 ) ) ;
#123 = SURFACE_SIDE_STYLE ('',( #110 ) ) ;
#124 = CARTESIAN_POINT ( 'NONE',  ( 0.0000000000000000000, 5.552511610272525600E-017, 893.8276764356820600 ) ) ;
#125 = VERTEX_POINT ( 'NONE', #42 ) ;
#126 =( NAMED_UNIT ( * ) PLANE_ANGLE_UNIT ( ) SI_UNIT ( $, .RADIAN. ) );
#127 = ADVANCED_FACE ( 'NONE', ( #173 ), #150, .T. ) ;
#128 = APPLICATION_PROTOCOL_DEFINITION ( 'draft international standard', 'automotive_design', 1998, #82 ) ;
#129 = ADVANCED_FACE ( 'NONE', ( #164 ), #54, .T. ) ;
#130 = ADVANCED_FACE ( 'NONE', ( #50 ), #180, .T. ) ;
#131 = DIRECTION ( 'NONE',  ( -0.0000000000000000000, 6.212060508591863000E-020, 1.000000000000000000 ) ) ;
#132 = PRESENTATION_LAYER_ASSIGNMENT (  '', '', ( #206 ) ) ;
#133 = VERTEX_POINT ( 'NONE', #22 ) ;
#134 = PRODUCT_DEFINITION_CONTEXT ( 'detailed design', #82, 'design' ) ;
#135 = CONICAL_SURFACE ( 'NONE', #15, 2414.213562373082400, 1.178097245096170600 ) ;
#136 = ORIENTED_EDGE ( 'NONE', *, *, #116, .F. ) ;
#137 = UNCERTAINTY_MEASURE_WITH_UNIT (LENGTH_MEASURE( 1.000000000000000100E-005 ), #209, 'distance_accuracy_value', 'NONE');
#138 = ORIENTED_EDGE ( 'NONE', *, *, #166, .T. ) ;
#139 = DIRECTION ( 'NONE',  ( 0.0000000000000000000, 1.000000000000000000, 0.0000000000000000000 ) ) ;
#140 = AXIS2_PLACEMENT_3D ( 'NONE', #153, #121, #207 ) ;
#141 = VECTOR ( 'NONE', #187, 999.9999999999998900 ) ;
#142 = ORIENTED_EDGE ( 'NONE', *, *, #73, .F. ) ;
#143 = DIRECTION ( 'NONE',  ( 0.0000000000000000000, 1.000000000000000000, 0.0000000000000000000 ) ) ;
#144 = DIRECTION ( 'NONE',  ( -0.0000000000000000000, 6.212060508591863000E-020, 1.000000000000000000 ) ) ;
#145 = ORIENTED_EDGE ( 'NONE', *, *, #14, .T. ) ;
#146 = PRODUCT_CONTEXT ( 'NONE', #10, 'mechanical' ) ;
#147 = CARTESIAN_POINT ( 'NONE',  ( 0.0000000000000000000, 0.0000000000000000000, 0.0000000000000000000 ) ) ;
#148 = ORIENTED_EDGE ( 'NONE', *, *, #186, .T. ) ;
#149 = ORIENTED_EDGE ( 'NONE', *, *, #166, .F. ) ;
#150 = CONICAL_SURFACE ( 'NONE', #196, 2414.213562373082400, 1.178097245096170600 ) ;
#151 = AXIS2_PLACEMENT_3D ( 'NONE', #95, #131, #45 ) ;
#152 = ORIENTED_EDGE ( 'NONE', *, *, #33, .T. ) ;
#153 = CARTESIAN_POINT ( 'NONE',  ( 0.0000000000000000000, 1.283835685475283100E-035, 2.066682518142921800E-016 ) ) ;
#154 = EDGE_CURVE ( 'NONE', #2, #31, #117, .T. ) ;
#155 = SHAPE_DEFINITION_REPRESENTATION ( #198, #60 ) ;
#156 = DIRECTION ( 'NONE',  ( 0.0000000000000000000, -6.212060508591863000E-020, -1.000000000000000000 ) ) ;
#157 = FACE_OUTER_BOUND ( 'NONE', #165, .T. ) ;
#158 = CARTESIAN_POINT ( 'NONE',  ( 0.0000000000000000000, 2.698750000000013700, 2.065006038313165600E-016 ) ) ;
#159 = DIRECTION ( 'NONE',  ( 0.0000000000000000000, -1.000000000000000000, 0.0000000000000000000 ) ) ;
#160 = DIRECTION ( 'NONE',  ( 1.000000000000000000, 0.0000000000000000000, 0.0000000000000000000 ) ) ;
#161 = PRESENTATION_LAYER_ASSIGNMENT (  '', '', ( #5 ) ) ;
#162 = ORIENTED_EDGE ( 'NONE', *, *, #73, .T. ) ;
#163 = COLOUR_RGB ( '',0.7921568627450980000, 0.8196078431372548800, 0.9333333333333333500 ) ;
#164 = FACE_OUTER_BOUND ( 'NONE', #99, .T. ) ;
#165 = EDGE_LOOP ( 'NONE', ( #138, #32, #90, #114 ) ) ;
#166 = EDGE_CURVE ( 'NONE', #184, #133, #177, .T. ) ;
#167 = DIRECTION ( 'NONE',  ( 0.0000000000000000000, -0.9238795325112860700, 0.3826834323650915000 ) ) ;
#168 = CARTESIAN_POINT ( 'NONE',  ( 0.0000000000000000000, 1.283835685475283100E-035, 2.066682518142921800E-016 ) ) ;
#169 = PRODUCT_DEFINITION ( 'UNKNOWN', '', #175, #134 ) ;
#170 = DIRECTION ( 'NONE',  ( 8.659560562354868800E-017, -0.7071067811865422400, -0.7071067811865526800 ) ) ;
#171 = CARTESIAN_POINT ( 'NONE',  ( 0.0000000000000000000, -3.373437500000014300, -104.7749999999999900 ) ) ;
#172 = ADVANCED_FACE ( 'NONE', ( #78 ), #135, .T. ) ;
#173 = FACE_OUTER_BOUND ( 'NONE', #182, .T. ) ;
#174 = APPLICATION_PROTOCOL_DEFINITION ( 'draft international standard', 'automotive_design', 1998, #10 ) ;
#175 = PRODUCT_DEFINITION_FORMATION_WITH_SPECIFIED_SOURCE ( 'ANY', '', #190, .NOT_KNOWN. ) ;
#176 = DIRECTION ( 'NONE',  ( -0.0000000000000000000, 6.212060508591863000E-020, 1.000000000000000000 ) ) ;
#177 = CIRCLE ( 'NONE', #151, 3.373437500000013400 ) ;
#178 = AXIS2_PLACEMENT_3D ( 'NONE', #202, #103, #4 ) ;
#179 = LINE ( 'NONE', #56, #141 ) ;
#180 = CONICAL_SURFACE ( 'NONE', #181, 2.698750000000013700, 0.7853981633974409500 ) ;
#181 = AXIS2_PLACEMENT_3D ( 'NONE', #185, #156, #52 ) ;
#182 = EDGE_LOOP ( 'NONE', ( #13, #145, #47 ) ) ;
#183 = CARTESIAN_POINT ( 'NONE',  ( 0.0000000000000000000, -6.595488983193371600E-018, -106.1723235643179900 ) ) ;
#184 = VERTEX_POINT ( 'NONE', #171 ) ;
#185 = CARTESIAN_POINT ( 'NONE',  ( 0.0000000000000000000, 1.283835685475283100E-035, 2.066682518142921800E-016 ) ) ;
#186 = EDGE_CURVE ( 'NONE', #2, #67, #188, .T. ) ;
#187 = DIRECTION ( 'NONE',  ( 1.131426112287699800E-016, 0.9238795325112860700, 0.3826834323650915000 ) ) ;
#188 = CIRCLE ( 'NONE', #25, 2.698750000000013700 ) ;
#189 = FILL_AREA_STYLE ('',( #23 ) ) ;
#190 = PRODUCT ( '03-0353', '03-0353', '', ( #146 ) ) ;
#191 = ADVANCED_FACE ( 'NONE', ( #157 ), #71, .T. ) ;
#192 =( LENGTH_UNIT ( ) NAMED_UNIT ( * ) SI_UNIT ( .MILLI., .METRE. ) );
#193 = MECHANICAL_DESIGN_GEOMETRIC_PRESENTATION_REPRESENTATION (  '', ( #5 ), #44 ) ;
#194 = CONICAL_SURFACE ( 'NONE', #140, 2.698750000000013700, 0.7853981633974409500 ) ;
#195 =( NAMED_UNIT ( * ) PLANE_ANGLE_UNIT ( ) SI_UNIT ( $, .RADIAN. ) );
#196 = AXIS2_PLACEMENT_3D ( 'NONE', #124, #122, #76 ) ;
#197 = ORIENTED_EDGE ( 'NONE', *, *, #14, .F. ) ;
#198 = PRODUCT_DEFINITION_SHAPE ( 'NONE', 'NONE',  #169 ) ;
#199 = EDGE_CURVE ( 'NONE', #184, #31, #7, .T. ) ;
#200 = VECTOR ( 'NONE', #170, 1000.000000000000100 ) ;
#201 = LINE ( 'NONE', #183, #97 ) ;
#202 = CARTESIAN_POINT ( 'NONE',  ( 0.0000000000000000000, 0.0000000000000000000, 0.0000000000000000000 ) ) ;
#203 = CIRCLE ( 'NONE', #68, 3.373437500000006800 ) ;
#204 = DIRECTION ( 'NONE',  ( -0.0000000000000000000, 6.212060508591863000E-020, 1.000000000000000000 ) ) ;
#205 =( NAMED_UNIT ( * ) SI_UNIT ( $, .STERADIAN. ) SOLID_ANGLE_UNIT ( ) );
#206 = STYLED_ITEM ( 'NONE', ( #120 ), #35 ) ;
#207 = DIRECTION ( 'NONE',  ( 0.0000000000000000000, 1.000000000000000000, -6.212060508591637900E-020 ) ) ;
#208 = VECTOR ( 'NONE', #3, 1000.000000000000000 ) ;
#209 =( LENGTH_UNIT ( ) NAMED_UNIT ( * ) SI_UNIT ( .MILLI., .METRE. ) );
#210 =( NAMED_UNIT ( * ) SI_UNIT ( $, .STERADIAN. ) SOLID_ANGLE_UNIT ( ) );
#211 = CARTESIAN_POINT ( 'NONE',  ( 0.0000000000000000000, -3.373437500000006800, 2.095599787195290500E-019 ) ) ;
#212 = CIRCLE ( 'NONE', #214, 3.373437500000006800 ) ;
#213 = DIRECTION ( 'NONE',  ( 0.0000000000000000000, 1.000000000000000000, -6.212060508591637900E-020 ) ) ;
#214 = AXIS2_PLACEMENT_3D ( 'NONE', #87, #77, #143 ) ;
ENDSEC;
END-ISO-10303-21;
