ISO-10303-21;
HEADER;
FILE_DESCRIPTION (( 'STEP AP214' ),
    '1' );
FILE_NAME ('03-0355.STEP',
    '2020-07-23T07:06:55',
    ( '' ),
    ( '' ),
    'SwSTEP 2.0',
    'SolidWorks 2014',
    '' );
FILE_SCHEMA (( 'AUTOMOTIVE_DESIGN' ));
ENDSEC;

DATA;
#1 = EDGE_CURVE ( 'NONE', #112, #3, #16, .T. ) ;
#2 = FACE_OUTER_BOUND ( 'NONE', #176, .T. ) ;
#3 = VERTEX_POINT ( 'NONE', #177 ) ;
#4 =( GEOMETRIC_REPRESENTATION_CONTEXT ( 3 ) GLOBAL_UNCERTAINTY_ASSIGNED_CONTEXT ( ( #210 ) ) GLOBAL_UNIT_ASSIGNED_CONTEXT ( ( #145, #117, #29 ) ) REPRESENTATION_CONTEXT ( 'NONE', 'WORKASPACE' ) );
#5 = LINE ( 'NONE', #172, #47 ) ;
#6 = CARTESIAN_POINT ( 'NONE',  ( 0.0000000000000000000, 2.646434154300549700E-036, 2.308866644979441700E-016 ) ) ;
#7 = DIRECTION ( 'NONE',  ( -0.0000000000000000000, 1.146204853387759700E-020, 1.000000000000000000 ) ) ;
#8 = VECTOR ( 'NONE', #88, 1000.000000000000000 ) ;
#9 = DIRECTION ( 'NONE',  ( 0.0000000000000000000, -1.146204853387759700E-020, -1.000000000000000000 ) ) ;
#10 = ADVANCED_FACE ( 'NONE', ( #136 ), #129, .T. ) ;
#11 = CARTESIAN_POINT ( 'NONE',  ( 0.0000000000000000000, 0.0000000000000000000, 0.0000000000000000000 ) ) ;
#12 = ORIENTED_EDGE ( 'NONE', *, *, #116, .T. ) ;
#13 = APPLICATION_CONTEXT ( 'automotive_design' ) ;
#14 = MECHANICAL_DESIGN_GEOMETRIC_PRESENTATION_REPRESENTATION (  '', ( #184 ), #128 ) ;
#15 = LINE ( 'NONE', #54, #119 ) ;
#16 = LINE ( 'NONE', #109, #8 ) ;
#17 = AXIS2_PLACEMENT_3D ( 'NONE', #183, #114, #152 ) ;
#18 = CONICAL_SURFACE ( 'NONE', #108, 3.016249999999998100, 0.7853981633974485000 ) ;
#19 = EDGE_LOOP ( 'NONE', ( #123, #12, #139 ) ) ;
#20 = DIRECTION ( 'NONE',  ( 0.0000000000000000000, -1.000000000000000000, 1.146204853387759700E-020 ) ) ;
#21 = EDGE_LOOP ( 'NONE', ( #24, #53, #107, #132 ) ) ;
#22 = DIRECTION ( 'NONE',  ( 0.0000000000000000000, -1.000000000000000000, 0.0000000000000000000 ) ) ;
#23 = AXIS2_PLACEMENT_3D ( 'NONE', #127, #9, #202 ) ;
#24 = ORIENTED_EDGE ( 'NONE', *, *, #149, .T. ) ;
#25 =( LENGTH_UNIT ( ) NAMED_UNIT ( * ) SI_UNIT ( .MILLI., .METRE. ) );
#26 =( NAMED_UNIT ( * ) SI_UNIT ( $, .STERADIAN. ) SOLID_ANGLE_UNIT ( ) );
#27 = FACE_OUTER_BOUND ( 'NONE', #19, .T. ) ;
#28 = VERTEX_POINT ( 'NONE', #206 ) ;
#29 =( NAMED_UNIT ( * ) SI_UNIT ( $, .STERADIAN. ) SOLID_ANGLE_UNIT ( ) );
#30 = LINE ( 'NONE', #92, #111 ) ;
#31 = FILL_AREA_STYLE ('',( #102 ) ) ;
#32 = EDGE_LOOP ( 'NONE', ( #51, #66, #34, #50 ) ) ;
#33 = FACE_OUTER_BOUND ( 'NONE', #160, .T. ) ;
#34 = ORIENTED_EDGE ( 'NONE', *, *, #1, .T. ) ;
#35 = AXIS2_PLACEMENT_3D ( 'NONE', #131, #159, #99 ) ;
#36 = FACE_OUTER_BOUND ( 'NONE', #175, .T. ) ;
#37 = PRODUCT_RELATED_PRODUCT_CATEGORY ( 'part', '', ( #71 ) ) ;
#38 = EDGE_CURVE ( 'NONE', #120, #28, #164, .T. ) ;
#39 = CARTESIAN_POINT ( 'NONE',  ( 2.303304630640496500E-050, -1.291620591546155700E-018, -112.6867145718848300 ) ) ;
#40 = FILL_AREA_STYLE_COLOUR ( '', #57 ) ;
#41 = CARTESIAN_POINT ( 'NONE',  ( 0.0000000000000000000, 1.017042794233144200E-017, 887.3132854281151400 ) ) ;
#42 = DIRECTION ( 'NONE',  ( 0.0000000000000000000, 1.000000000000000000, 0.0000000000000000000 ) ) ;
#43 = ORIENTED_EDGE ( 'NONE', *, *, #124, .F. ) ;
#44 = CARTESIAN_POINT ( 'NONE',  ( 4.155571021419232400E-016, -3.016249999999998100, 2.309212369018345200E-016 ) ) ;
#45 = AXIS2_PLACEMENT_3D ( 'NONE', #144, #63, #173 ) ;
#46 =( LENGTH_UNIT ( ) NAMED_UNIT ( * ) SI_UNIT ( .MILLI., .METRE. ) );
#47 = VECTOR ( 'NONE', #101, 1000.000000000000000 ) ;
#48 = DIRECTION ( 'NONE',  ( 1.000000000000000000, 0.0000000000000000000, 0.0000000000000000000 ) ) ;
#49 = VERTEX_POINT ( 'NONE', #44 ) ;
#50 = ORIENTED_EDGE ( 'NONE', *, *, #74, .T. ) ;
#51 = ORIENTED_EDGE ( 'NONE', *, *, #38, .F. ) ;
#52 = STYLED_ITEM ( 'NONE', ( #72 ), #55 ) ;
#53 = ORIENTED_EDGE ( 'NONE', *, *, #38, .T. ) ;
#54 = CARTESIAN_POINT ( 'NONE',  ( 0.0000000000000000000, -1.291620591546156100E-018, -112.6867145718848300 ) ) ;
#55 = ADVANCED_BREP_SHAPE_REPRESENTATION ( '03-0355', ( #67, #100 ), #179 ) ;
#56 = DIRECTION ( 'NONE',  ( 0.0000000000000000000, -1.000000000000000000, 0.0000000000000000000 ) ) ;
#57 = COLOUR_RGB ( '',0.7921568627450980000, 0.8196078431372548800, 0.9333333333333333500 ) ;
#58 = DIRECTION ( 'NONE',  ( 0.0000000000000000000, -1.146204853387759700E-020, -1.000000000000000000 ) ) ;
#59 = CARTESIAN_POINT ( 'NONE',  ( 0.0000000000000000000, -1.291620591546155700E-018, -112.6867145718848300 ) ) ;
#60 = PRODUCT_DEFINITION_CONTEXT ( 'detailed design', #146, 'design' ) ;
#61 = ADVANCED_FACE ( 'NONE', ( #27 ), #204, .T. ) ;
#62 = APPLICATION_PROTOCOL_DEFINITION ( 'draft international standard', 'automotive_design', 1998, #13 ) ;
#63 = DIRECTION ( 'NONE',  ( 0.0000000000000000000, -1.146204853387759700E-020, -1.000000000000000000 ) ) ;
#64 =( NAMED_UNIT ( * ) PLANE_ANGLE_UNIT ( ) SI_UNIT ( $, .RADIAN. ) );
#65 = FACE_OUTER_BOUND ( 'NONE', #21, .T. ) ;
#66 = ORIENTED_EDGE ( 'NONE', *, *, #187, .T. ) ;
#67 = MANIFOLD_SOLID_BREP ( '¸ðµû±â1', #137 ) ;
#68 = MECHANICAL_DESIGN_GEOMETRIC_PRESENTATION_REPRESENTATION (  '', ( #52 ), #4 ) ;
#69 = LINE ( 'NONE', #39, #78 ) ;
#70 = EDGE_LOOP ( 'NONE', ( #93, #155 ) ) ;
#71 = PRODUCT ( '03-0355', '03-0355', '', ( #157 ) ) ;
#72 = PRESENTATION_STYLE_ASSIGNMENT (( #208 ) ) ;
#73 = ORIENTED_EDGE ( 'NONE', *, *, #200, .F. ) ;
#74 = EDGE_CURVE ( 'NONE', #3, #28, #174, .T. ) ;
#75 = DIRECTION ( 'NONE',  ( 0.0000000000000000000, 0.7071067811865477900, -0.7071067811865473500 ) ) ;
#76 = DIRECTION ( 'NONE',  ( 0.0000000000000000000, -1.000000000000000000, 0.0000000000000000000 ) ) ;
#77 = DIRECTION ( 'NONE',  ( 0.0000000000000000000, 1.000000000000000000, -1.146204853388430500E-020 ) ) ;
#78 = VECTOR ( 'NONE', #156, 1000.000000000000000 ) ;
#79 = VERTEX_POINT ( 'NONE', #59 ) ;
#80 = ADVANCED_FACE ( 'NONE', ( #36 ), #18, .T. ) ;
#81 = CARTESIAN_POINT ( 'NONE',  ( 0.0000000000000000000, 0.0000000000000000000, 0.0000000000000000000 ) ) ;
#82 = SURFACE_SIDE_STYLE ('',( #209 ) ) ;
#83 = PRODUCT_DEFINITION_FORMATION_WITH_SPECIFIED_SOURCE ( 'ANY', '', #71, .NOT_KNOWN. ) ;
#84 = CARTESIAN_POINT ( 'NONE',  ( 0.0000000000000000000, -1.273720143327148000E-018, -111.1250000000000000 ) ) ;
#85 = AXIS2_PLACEMENT_3D ( 'NONE', #195, #198, #20 ) ;
#86 = VECTOR ( 'NONE', #167, 1000.000000000000000 ) ;
#87 = AXIS2_PLACEMENT_3D ( 'NONE', #84, #186, #170 ) ;
#88 = DIRECTION ( 'NONE',  ( -0.0000000000000000000, 1.146204853387759700E-020, 1.000000000000000000 ) ) ;
#89 = AXIS2_PLACEMENT_3D ( 'NONE', #168, #181, #22 ) ;
#90 = DIRECTION ( 'NONE',  ( 0.0000000000000000000, -0.9238795325112848500, 0.3826834323650943300 ) ) ;
#91 = CARTESIAN_POINT ( 'NONE',  ( 4.617301134910270100E-016, 3.770312500000011700, -111.1250000000000000 ) ) ;
#92 = CARTESIAN_POINT ( 'NONE',  ( 0.0000000000000000000, 3.016249999999998100, 2.308520920940538700E-016 ) ) ;
#93 = ORIENTED_EDGE ( 'NONE', *, *, #161, .T. ) ;
#94 = FILL_AREA_STYLE ('',( #40 ) ) ;
#95 = EDGE_CURVE ( 'NONE', #49, #104, #151, .T. ) ;
#96 = CARTESIAN_POINT ( 'NONE',  ( 4.617301134910262200E-016, 3.770312500000006400, -4.321550486288545000E-020 ) ) ;
#97 = APPLICATION_PROTOCOL_DEFINITION ( 'draft international standard', 'automotive_design', 1998, #146 ) ;
#98 = ORIENTED_EDGE ( 'NONE', *, *, #187, .F. ) ;
#99 = DIRECTION ( 'NONE',  ( 0.0000000000000000000, 1.000000000000000000, -1.146204853388430500E-020 ) ) ;
#100 = AXIS2_PLACEMENT_3D ( 'NONE', #11, #158, #48 ) ;
#101 = DIRECTION ( 'NONE',  ( 8.659560562354937800E-017, -0.7071067811865477900, -0.7071067811865473500 ) ) ;
#102 = FILL_AREA_STYLE_COLOUR ( '', #135 ) ;
#103 = ORIENTED_EDGE ( 'NONE', *, *, #74, .F. ) ;
#104 = VERTEX_POINT ( 'NONE', #182 ) ;
#105 = AXIS2_PLACEMENT_3D ( 'NONE', #153, #201, #56 ) ;
#106 = CYLINDRICAL_SURFACE ( 'NONE', #213, 3.770312500000006400 ) ;
#107 = ORIENTED_EDGE ( 'NONE', *, *, #124, .T. ) ;
#108 = AXIS2_PLACEMENT_3D ( 'NONE', #166, #138, #77 ) ;
#109 = CARTESIAN_POINT ( 'NONE',  ( 0.0000000000000000000, -3.770312500000006400, 4.321550486288545000E-020 ) ) ;
#110 = AXIS2_PLACEMENT_3D ( 'NONE', #41, #7, #76 ) ;
#111 = VECTOR ( 'NONE', #75, 1000.000000000000000 ) ;
#112 = VERTEX_POINT ( 'NONE', #165 ) ;
#113 = SURFACE_SIDE_STYLE ('',( #154 ) ) ;
#114 = DIRECTION ( 'NONE',  ( -0.0000000000000000000, 1.146204853387759700E-020, 1.000000000000000000 ) ) ;
#115 =( NAMED_UNIT ( * ) SI_UNIT ( $, .STERADIAN. ) SOLID_ANGLE_UNIT ( ) );
#116 = EDGE_CURVE ( 'NONE', #79, #120, #69, .T. ) ;
#117 =( NAMED_UNIT ( * ) PLANE_ANGLE_UNIT ( ) SI_UNIT ( $, .RADIAN. ) );
#118 = EDGE_CURVE ( 'NONE', #104, #28, #30, .T. ) ;
#119 = VECTOR ( 'NONE', #90, 1000.000000000000000 ) ;
#120 = VERTEX_POINT ( 'NONE', #91 ) ;
#121 = CIRCLE ( 'NONE', #87, 3.770312500000012600 ) ;
#122 = PRODUCT_DEFINITION ( 'UNKNOWN', '', #83, #60 ) ;
#123 = ORIENTED_EDGE ( 'NONE', *, *, #133, .F. ) ;
#124 = EDGE_CURVE ( 'NONE', #28, #3, #134, .T. ) ;
#125 = FACE_OUTER_BOUND ( 'NONE', #70, .T. ) ;
#126 = CARTESIAN_POINT ( 'NONE',  ( 0.0000000000000000000, -8.643100972577160400E-021, -0.7540625000000074100 ) ) ;
#127 = CARTESIAN_POINT ( 'NONE',  ( 0.0000000000000000000, -8.643100972577160400E-021, -0.7540625000000074100 ) ) ;
#128 =( GEOMETRIC_REPRESENTATION_CONTEXT ( 3 ) GLOBAL_UNCERTAINTY_ASSIGNED_CONTEXT ( ( #190 ) ) GLOBAL_UNIT_ASSIGNED_CONTEXT ( ( #25, #140, #26 ) ) REPRESENTATION_CONTEXT ( 'NONE', 'WORKASPACE' ) );
#129 = CYLINDRICAL_SURFACE ( 'NONE', #85, 3.770312500000006400 ) ;
#130 = DIRECTION ( 'NONE',  ( 0.0000000000000000000, -1.000000000000000000, 1.146204853387759700E-020 ) ) ;
#131 = CARTESIAN_POINT ( 'NONE',  ( 0.0000000000000000000, 2.646434154300549700E-036, 2.308866644979441700E-016 ) ) ;
#132 = ORIENTED_EDGE ( 'NONE', *, *, #1, .F. ) ;
#133 = EDGE_CURVE ( 'NONE', #79, #112, #15, .T. ) ;
#134 = CIRCLE ( 'NONE', #171, 3.770312500000006400 ) ;
#135 = COLOUR_RGB ( '',0.7921568627450980000, 0.8196078431372548800, 0.9333333333333333500 ) ;
#136 = FACE_OUTER_BOUND ( 'NONE', #32, .T. ) ;
#137 = CLOSED_SHELL ( 'NONE', ( #80, #207, #61, #212, #169, #10, #141 ) ) ;
#138 = DIRECTION ( 'NONE',  ( 0.0000000000000000000, -1.146204853387759700E-020, -1.000000000000000000 ) ) ;
#139 = ORIENTED_EDGE ( 'NONE', *, *, #149, .F. ) ;
#140 =( NAMED_UNIT ( * ) PLANE_ANGLE_UNIT ( ) SI_UNIT ( $, .RADIAN. ) );
#141 = ADVANCED_FACE ( 'NONE', ( #33 ), #192, .T. ) ;
#142 = PRESENTATION_LAYER_ASSIGNMENT (  '', '', ( #184 ) ) ;
#143 = ORIENTED_EDGE ( 'NONE', *, *, #118, .T. ) ;
#144 = CARTESIAN_POINT ( 'NONE',  ( 0.0000000000000000000, 3.770312499999999700, 2.308434489930813200E-016 ) ) ;
#145 =( LENGTH_UNIT ( ) NAMED_UNIT ( * ) SI_UNIT ( .MILLI., .METRE. ) );
#146 = APPLICATION_CONTEXT ( 'automotive_design' ) ;
#147 = ORIENTED_EDGE ( 'NONE', *, *, #161, .F. ) ;
#148 = ORIENTED_EDGE ( 'NONE', *, *, #95, .F. ) ;
#149 = EDGE_CURVE ( 'NONE', #112, #120, #162, .T. ) ;
#150 = UNCERTAINTY_MEASURE_WITH_UNIT (LENGTH_MEASURE( 1.000000000000000100E-005 ), #46, 'distance_accuracy_value', 'NONE');
#151 = CIRCLE ( 'NONE', #17, 3.016249999999998100 ) ;
#152 = DIRECTION ( 'NONE',  ( 0.0000000000000000000, 1.000000000000000000, -1.146204853388430500E-020 ) ) ;
#153 = CARTESIAN_POINT ( 'NONE',  ( 0.0000000000000000000, -1.273720143327148000E-018, -111.1250000000000000 ) ) ;
#154 = SURFACE_STYLE_FILL_AREA ( #94 ) ;
#155 = ORIENTED_EDGE ( 'NONE', *, *, #95, .T. ) ;
#156 = DIRECTION ( 'NONE',  ( 1.131426112287698000E-016, 0.9238795325112848500, 0.3826834323650943300 ) ) ;
#157 = PRODUCT_CONTEXT ( 'NONE', #13, 'mechanical' ) ;
#158 = DIRECTION ( 'NONE',  ( 0.0000000000000000000, 0.0000000000000000000, 1.000000000000000000 ) ) ;
#159 = DIRECTION ( 'NONE',  ( -0.0000000000000000000, 1.146204853387759700E-020, 1.000000000000000000 ) ) ;
#160 = EDGE_LOOP ( 'NONE', ( #73, #147, #143, #103 ) ) ;
#161 = EDGE_CURVE ( 'NONE', #104, #49, #196, .T. ) ;
#162 = CIRCLE ( 'NONE', #105, 3.770312500000012600 ) ;
#163 = CONICAL_SURFACE ( 'NONE', #110, 2414.213562373061000, 1.178097245096167500 ) ;
#164 = LINE ( 'NONE', #96, #86 ) ;
#165 = CARTESIAN_POINT ( 'NONE',  ( 0.0000000000000000000, -3.770312500000011700, -111.1250000000000000 ) ) ;
#166 = CARTESIAN_POINT ( 'NONE',  ( 0.0000000000000000000, 2.646434154300549700E-036, 2.308866644979441700E-016 ) ) ;
#167 = DIRECTION ( 'NONE',  ( -0.0000000000000000000, 1.146204853387759700E-020, 1.000000000000000000 ) ) ;
#168 = CARTESIAN_POINT ( 'NONE',  ( 0.0000000000000000000, 1.017042794233144200E-017, 887.3132854281151400 ) ) ;
#169 = ADVANCED_FACE ( 'NONE', ( #2 ), #163, .T. ) ;
#170 = DIRECTION ( 'NONE',  ( 0.0000000000000000000, -1.000000000000000000, 0.0000000000000000000 ) ) ;
#171 = AXIS2_PLACEMENT_3D ( 'NONE', #126, #199, #42 ) ;
#172 = CARTESIAN_POINT ( 'NONE',  ( 3.693840907928202000E-016, -3.016249999999998100, 2.309212369018345200E-016 ) ) ;
#173 = DIRECTION ( 'NONE',  ( 0.0000000000000000000, 1.000000000000000000, -1.146204853387759700E-020 ) ) ;
#174 = CIRCLE ( 'NONE', #23, 3.770312500000006400 ) ;
#175 = EDGE_LOOP ( 'NONE', ( #148, #205, #43, #193 ) ) ;
#176 = EDGE_LOOP ( 'NONE', ( #189, #178, #98 ) ) ;
#177 = CARTESIAN_POINT ( 'NONE',  ( 0.0000000000000000000, -3.770312500000006400, -0.7540625000000074100 ) ) ;
#178 = ORIENTED_EDGE ( 'NONE', *, *, #133, .T. ) ;
#179 =( GEOMETRIC_REPRESENTATION_CONTEXT ( 3 ) GLOBAL_UNCERTAINTY_ASSIGNED_CONTEXT ( ( #150 ) ) GLOBAL_UNIT_ASSIGNED_CONTEXT ( ( #46, #64, #115 ) ) REPRESENTATION_CONTEXT ( 'NONE', 'WORKASPACE' ) );
#180 = DIRECTION ( 'NONE',  ( 0.0000000000000000000, 1.000000000000000000, -1.146204853388430500E-020 ) ) ;
#181 = DIRECTION ( 'NONE',  ( -0.0000000000000000000, 1.146204853387759700E-020, 1.000000000000000000 ) ) ;
#182 = CARTESIAN_POINT ( 'NONE',  ( 0.0000000000000000000, 3.016249999999998100, 2.308520920940538700E-016 ) ) ;
#183 = CARTESIAN_POINT ( 'NONE',  ( 0.0000000000000000000, 2.646434154300549700E-036, 2.308866644979441700E-016 ) ) ;
#184 = STYLED_ITEM ( 'NONE', ( #188 ), #67 ) ;
#185 = DIRECTION ( 'NONE',  ( -0.0000000000000000000, 1.146204853387759700E-020, 1.000000000000000000 ) ) ;
#186 = DIRECTION ( 'NONE',  ( -0.0000000000000000000, 1.146204853387759700E-020, 1.000000000000000000 ) ) ;
#187 = EDGE_CURVE ( 'NONE', #120, #112, #121, .T. ) ;
#188 = PRESENTATION_STYLE_ASSIGNMENT (( #203 ) ) ;
#189 = ORIENTED_EDGE ( 'NONE', *, *, #116, .F. ) ;
#190 = UNCERTAINTY_MEASURE_WITH_UNIT (LENGTH_MEASURE( 1.000000000000000100E-005 ), #25, 'distance_accuracy_value', 'NONE');
#191 = PRESENTATION_LAYER_ASSIGNMENT (  '', '', ( #52 ) ) ;
#192 = CONICAL_SURFACE ( 'NONE', #197, 3.016249999999998100, 0.7853981633974485000 ) ;
#193 = ORIENTED_EDGE ( 'NONE', *, *, #118, .F. ) ;
#194 = PRODUCT_DEFINITION_SHAPE ( 'NONE', 'NONE',  #122 ) ;
#195 = CARTESIAN_POINT ( 'NONE',  ( 0.0000000000000000000, 0.0000000000000000000, 0.0000000000000000000 ) ) ;
#196 = CIRCLE ( 'NONE', #35, 3.016249999999998100 ) ;
#197 = AXIS2_PLACEMENT_3D ( 'NONE', #6, #58, #180 ) ;
#198 = DIRECTION ( 'NONE',  ( -0.0000000000000000000, 1.146204853387759700E-020, 1.000000000000000000 ) ) ;
#199 = DIRECTION ( 'NONE',  ( 0.0000000000000000000, -1.146204853387759700E-020, -1.000000000000000000 ) ) ;
#200 = EDGE_CURVE ( 'NONE', #49, #3, #5, .T. ) ;
#201 = DIRECTION ( 'NONE',  ( -0.0000000000000000000, 1.146204853387759700E-020, 1.000000000000000000 ) ) ;
#202 = DIRECTION ( 'NONE',  ( 0.0000000000000000000, 1.000000000000000000, 0.0000000000000000000 ) ) ;
#203 = SURFACE_STYLE_USAGE ( .BOTH. , #113 ) ;
#204 = CONICAL_SURFACE ( 'NONE', #89, 2414.213562373061000, 1.178097245096167500 ) ;
#205 = ORIENTED_EDGE ( 'NONE', *, *, #200, .T. ) ;
#206 = CARTESIAN_POINT ( 'NONE',  ( 4.617301134910262200E-016, 3.770312500000006400, -0.7540625000000074100 ) ) ;
#207 = ADVANCED_FACE ( 'NONE', ( #65 ), #106, .T. ) ;
#208 = SURFACE_STYLE_USAGE ( .BOTH. , #82 ) ;
#209 = SURFACE_STYLE_FILL_AREA ( #31 ) ;
#210 = UNCERTAINTY_MEASURE_WITH_UNIT (LENGTH_MEASURE( 1.000000000000000100E-005 ), #145, 'distance_accuracy_value', 'NONE');
#211 = PLANE ( 'NONE',  #45 ) ;
#212 = ADVANCED_FACE ( 'NONE', ( #125 ), #211, .F. ) ;
#213 = AXIS2_PLACEMENT_3D ( 'NONE', #81, #185, #130 ) ;
#214 = SHAPE_DEFINITION_REPRESENTATION ( #194, #55 ) ;
ENDSEC;
END-ISO-10303-21;
