ISO-10303-21;
HEADER;
FILE_DESCRIPTION (( 'STEP AP214' ),
    '1' );
FILE_NAME ('03-0356.STEP',
    '2020-07-23T07:07:36',
    ( '' ),
    ( '' ),
    'SwSTEP 2.0',
    'SolidWorks 2014',
    '' );
FILE_SCHEMA (( 'AUTOMOTIVE_DESIGN' ));
ENDSEC;

DATA;
#1 = VERTEX_POINT ( 'NONE', #72 ) ;
#2 = FACE_OUTER_BOUND ( 'NONE', #207, .T. ) ;
#3 = ORIENTED_EDGE ( 'NONE', *, *, #178, .F. ) ;
#4 = DIRECTION ( 'NONE',  ( 0.0000000000000000000, 1.000000000000000000, -1.006468042749229700E-019 ) ) ;
#5 = AXIS2_PLACEMENT_3D ( 'NONE', #9, #169, #7 ) ;
#6 = UNCERTAINTY_MEASURE_WITH_UNIT (LENGTH_MEASURE( 1.000000000000000100E-005 ), #193, 'distance_accuracy_value', 'NONE');
#7 = DIRECTION ( 'NONE',  ( 0.0000000000000000000, 1.000000000000000000, -1.006468042749256000E-019 ) ) ;
#8 = FILL_AREA_STYLE ('',( #50 ) ) ;
#9 = CARTESIAN_POINT ( 'NONE',  ( 0.0000000000000000000, 2.447886989134198000E-035, 2.432155702080359800E-016 ) ) ;
#10 = DIRECTION ( 'NONE',  ( -0.0000000000000000000, 1.006468042749229700E-019, 1.000000000000000000 ) ) ;
#11 = EDGE_CURVE ( 'NONE', #164, #15, #194, .T. ) ;
#12 = CARTESIAN_POINT ( 'NONE',  ( 4.860316984116067000E-016, 3.968750000000007100, -3.994420044661012800E-019 ) ) ;
#13 = SURFACE_SIDE_STYLE ('',( #114 ) ) ;
#14 = DIRECTION ( 'NONE',  ( 0.0000000000000000000, 1.000000000000000000, -1.006468042749256000E-019 ) ) ;
#15 = VERTEX_POINT ( 'NONE', #202 ) ;
#16 = PRODUCT_DEFINITION_SHAPE ( 'NONE', 'NONE',  #131 ) ;
#17 = AXIS2_PLACEMENT_3D ( 'NONE', #119, #90, #69 ) ;
#18 = SHAPE_DEFINITION_REPRESENTATION ( #16, #45 ) ;
#19 = PRODUCT_RELATED_PRODUCT_CATEGORY ( 'part', '', ( #55 ) ) ;
#20 = PRESENTATION_LAYER_ASSIGNMENT (  '', '', ( #110 ) ) ;
#21 = ORIENTED_EDGE ( 'NONE', *, *, #129, .F. ) ;
#22 = CARTESIAN_POINT ( 'NONE',  ( 0.0000000000000000000, -7.988840089322089100E-020, -0.7937500000000077300 ) ) ;
#23 = DIRECTION ( 'NONE',  ( 8.659560562354867500E-017, -0.7071067811865421300, -0.7071067811865530100 ) ) ;
#24 = DIRECTION ( 'NONE',  ( 0.0000000000000000000, -1.000000000000000000, 1.006468042749229800E-019 ) ) ;
#25 = AXIS2_PLACEMENT_3D ( 'NONE', #107, #104, #4 ) ;
#26 = DIRECTION ( 'NONE',  ( 1.131426112287698000E-016, 0.9238795325112849600, 0.3826834323650938300 ) ) ;
#27 = CARTESIAN_POINT ( 'NONE',  ( 0.0000000000000000000, 8.897742025066791300E-017, 884.0560899243316700 ) ) ;
#28 = COLOUR_RGB ( '',0.7921568627450980000, 0.8196078431372548800, 0.9333333333333333500 ) ;
#29 = SURFACE_STYLE_USAGE ( .BOTH. , #153 ) ;
#30 = DIRECTION ( 'NONE',  ( -0.0000000000000000000, 1.006468042749229700E-019, 1.000000000000000000 ) ) ;
#31 = FACE_OUTER_BOUND ( 'NONE', #36, .T. ) ;
#32 =( NAMED_UNIT ( * ) PLANE_ANGLE_UNIT ( ) SI_UNIT ( $, .RADIAN. ) );
#33 = ORIENTED_EDGE ( 'NONE', *, *, #63, .F. ) ;
#34 = ADVANCED_FACE ( 'NONE', ( #31 ), #83, .T. ) ;
#35 = EDGE_CURVE ( 'NONE', #120, #142, #38, .T. ) ;
#36 = EDGE_LOOP ( 'NONE', ( #113, #127, #211, #66 ) ) ;
#37 = VECTOR ( 'NONE', #172, 1000.000000000000100 ) ;
#38 = LINE ( 'NONE', #148, #98 ) ;
#39 = ORIENTED_EDGE ( 'NONE', *, *, #199, .T. ) ;
#40 = ADVANCED_FACE ( 'NONE', ( #115 ), #183, .F. ) ;
#41 = ORIENTED_EDGE ( 'NONE', *, *, #56, .F. ) ;
#42 = CARTESIAN_POINT ( 'NONE',  ( 0.0000000000000000000, 0.0000000000000000000, 0.0000000000000000000 ) ) ;
#43 = DIRECTION ( 'NONE',  ( 0.0000000000000000000, 1.000000000000000000, 0.0000000000000000000 ) ) ;
#44 = APPLICATION_CONTEXT ( 'automotive_design' ) ;
#45 = ADVANCED_BREP_SHAPE_REPRESENTATION ( '03-0356', ( #200, #174 ), #196 ) ;
#46 = DIRECTION ( 'NONE',  ( 0.0000000000000000000, -1.000000000000000000, 0.0000000000000000000 ) ) ;
#47 = EDGE_LOOP ( 'NONE', ( #53, #103, #179 ) ) ;
#48 =( GEOMETRIC_REPRESENTATION_CONTEXT ( 3 ) GLOBAL_UNCERTAINTY_ASSIGNED_CONTEXT ( ( #6 ) ) GLOBAL_UNIT_ASSIGNED_CONTEXT ( ( #193, #32, #136 ) ) REPRESENTATION_CONTEXT ( 'NONE', 'WORKASPACE' ) );
#49 = APPLICATION_PROTOCOL_DEFINITION ( 'draft international standard', 'automotive_design', 1998, #44 ) ;
#50 = FILL_AREA_STYLE_COLOUR ( '', #141 ) ;
#51 = ORIENTED_EDGE ( 'NONE', *, *, #178, .T. ) ;
#52 = ADVANCED_FACE ( 'NONE', ( #111 ), #99, .T. ) ;
#53 = ORIENTED_EDGE ( 'NONE', *, *, #35, .F. ) ;
#54 = ORIENTED_EDGE ( 'NONE', *, *, #11, .T. ) ;
#55 = PRODUCT ( '03-0356', '03-0356', '', ( #190 ) ) ;
#56 = EDGE_CURVE ( 'NONE', #1, #142, #100, .T. ) ;
#57 = VECTOR ( 'NONE', #10, 1000.000000000000000 ) ;
#58 = EDGE_LOOP ( 'NONE', ( #155, #54, #33, #3 ) ) ;
#59 = CARTESIAN_POINT ( 'NONE',  ( 0.0000000000000000000, 3.175000000000011400, 2.428960166044631000E-016 ) ) ;
#60 = DIRECTION ( 'NONE',  ( 0.0000000000000000000, -1.000000000000000000, 0.0000000000000000000 ) ) ;
#61 = APPLICATION_CONTEXT ( 'automotive_design' ) ;
#62 = DIRECTION ( 'NONE',  ( 0.0000000000000000000, 1.000000000000000000, 0.0000000000000000000 ) ) ;
#63 = EDGE_CURVE ( 'NONE', #102, #15, #75, .T. ) ;
#64 = CIRCLE ( 'NONE', #112, 3.968750000000013800 ) ;
#65 = EDGE_CURVE ( 'NONE', #142, #1, #64, .T. ) ;
#66 = ORIENTED_EDGE ( 'NONE', *, *, #186, .F. ) ;
#67 = CIRCLE ( 'NONE', #101, 3.175000000000011400 ) ;
#68 = ORIENTED_EDGE ( 'NONE', *, *, #156, .F. ) ;
#69 = DIRECTION ( 'NONE',  ( 0.0000000000000000000, -1.000000000000000000, 1.006468042749229800E-019 ) ) ;
#70 = VECTOR ( 'NONE', #206, 1000.000000000000000 ) ;
#71 = MECHANICAL_DESIGN_GEOMETRIC_PRESENTATION_REPRESENTATION (  '', ( #182 ), #210 ) ;
#72 = CARTESIAN_POINT ( 'NONE',  ( 0.0000000000000000000, -3.968750000000014700, -114.3000000000000000 ) ) ;
#73 = DIRECTION ( 'NONE',  ( 0.0000000000000000000, -1.006468042749229800E-019, -1.000000000000000000 ) ) ;
#74 = FILL_AREA_STYLE ('',( #122 ) ) ;
#75 = CIRCLE ( 'NONE', #146, 3.968750000000007100 ) ;
#76 = CIRCLE ( 'NONE', #163, 3.968750000000007100 ) ;
#77 = CARTESIAN_POINT ( 'NONE',  ( 0.0000000000000000000, 2.447886989134198500E-035, 2.432155702080359800E-016 ) ) ;
#78 = DIRECTION ( 'NONE',  ( 0.0000000000000000000, 1.000000000000000000, -1.006468042749256000E-019 ) ) ;
#79 = EDGE_CURVE ( 'NONE', #150, #164, #82, .T. ) ;
#80 = ORIENTED_EDGE ( 'NONE', *, *, #213, .F. ) ;
#81 =( NAMED_UNIT ( * ) PLANE_ANGLE_UNIT ( ) SI_UNIT ( $, .RADIAN. ) );
#82 = CIRCLE ( 'NONE', #5, 3.175000000000011400 ) ;
#83 = CYLINDRICAL_SURFACE ( 'NONE', #17, 3.968750000000007100 ) ;
#84 = AXIS2_PLACEMENT_3D ( 'NONE', #170, #204, #60 ) ;
#85 = ORIENTED_EDGE ( 'NONE', *, *, #213, .T. ) ;
#86 = LINE ( 'NONE', #95, #57 ) ;
#87 = LINE ( 'NONE', #93, #37 ) ;
#88 = CARTESIAN_POINT ( 'NONE',  ( 4.860316984116067000E-016, 3.968750000000007100, -0.7937500000000077300 ) ) ;
#89 = ORIENTED_EDGE ( 'NONE', *, *, #65, .T. ) ;
#90 = DIRECTION ( 'NONE',  ( -0.0000000000000000000, 1.006468042749229700E-019, 1.000000000000000000 ) ) ;
#91 = AXIS2_PLACEMENT_3D ( 'NONE', #42, #168, #24 ) ;
#92 = CARTESIAN_POINT ( 'NONE',  ( 0.0000000000000000000, -7.988840089322089100E-020, -0.7937500000000077300 ) ) ;
#93 = CARTESIAN_POINT ( 'NONE',  ( 0.0000000000000000000, -1.166938402425505300E-017, -115.9439100756682400 ) ) ;
#94 = DIRECTION ( 'NONE',  ( 0.0000000000000000000, 0.0000000000000000000, 1.000000000000000000 ) ) ;
#95 = CARTESIAN_POINT ( 'NONE',  ( 0.0000000000000000000, -3.968750000000007100, 3.994420044661012800E-019 ) ) ;
#96 = FACE_OUTER_BOUND ( 'NONE', #133, .T. ) ;
#97 = APPLICATION_PROTOCOL_DEFINITION ( 'draft international standard', 'automotive_design', 1998, #61 ) ;
#98 = VECTOR ( 'NONE', #26, 1000.000000000000100 ) ;
#99 = CONICAL_SURFACE ( 'NONE', #161, 2414.213562373064600, 1.178097245096168000 ) ;
#100 = CIRCLE ( 'NONE', #84, 3.968750000000013800 ) ;
#101 = AXIS2_PLACEMENT_3D ( 'NONE', #125, #208, #14 ) ;
#102 = VERTEX_POINT ( 'NONE', #88 ) ;
#103 = ORIENTED_EDGE ( 'NONE', *, *, #129, .T. ) ;
#104 = DIRECTION ( 'NONE',  ( 0.0000000000000000000, -1.006468042749229700E-019, -1.000000000000000000 ) ) ;
#105 = ADVANCED_FACE ( 'NONE', ( #144 ), #165, .T. ) ;
#106 = DIRECTION ( 'NONE',  ( -0.0000000000000000000, 1.006468042749229700E-019, 1.000000000000000000 ) ) ;
#107 = CARTESIAN_POINT ( 'NONE',  ( 0.0000000000000000000, 3.968749999999999100, 2.428161282035698800E-016 ) ) ;
#108 =( LENGTH_UNIT ( ) NAMED_UNIT ( * ) SI_UNIT ( .MILLI., .METRE. ) );
#109 = CARTESIAN_POINT ( 'NONE',  ( 4.860316984116075800E-016, 3.968750000000014700, -114.3000000000000000 ) ) ;
#110 = STYLED_ITEM ( 'NONE', ( #118 ), #200 ) ;
#111 = FACE_OUTER_BOUND ( 'NONE', #47, .T. ) ;
#112 = AXIS2_PLACEMENT_3D ( 'NONE', #203, #106, #134 ) ;
#113 = ORIENTED_EDGE ( 'NONE', *, *, #56, .T. ) ;
#114 = SURFACE_STYLE_FILL_AREA ( #74 ) ;
#115 = FACE_OUTER_BOUND ( 'NONE', #123, .T. ) ;
#116 = PRESENTATION_STYLE_ASSIGNMENT (( #29 ) ) ;
#117 = PRODUCT_DEFINITION_FORMATION_WITH_SPECIFIED_SOURCE ( 'ANY', '', #55, .NOT_KNOWN. ) ;
#118 = PRESENTATION_STYLE_ASSIGNMENT (( #126 ) ) ;
#119 = CARTESIAN_POINT ( 'NONE',  ( 0.0000000000000000000, 0.0000000000000000000, 0.0000000000000000000 ) ) ;
#120 = VERTEX_POINT ( 'NONE', #184 ) ;
#121 = DIRECTION ( 'NONE',  ( 0.0000000000000000000, -1.006468042749229800E-019, -1.000000000000000000 ) ) ;
#122 = FILL_AREA_STYLE_COLOUR ( '', #28 ) ;
#123 = EDGE_LOOP ( 'NONE', ( #159, #39 ) ) ;
#124 = DIRECTION ( 'NONE',  ( -0.0000000000000000000, 1.006468042749229700E-019, 1.000000000000000000 ) ) ;
#125 = CARTESIAN_POINT ( 'NONE',  ( 0.0000000000000000000, 2.447886989134198000E-035, 2.432155702080359800E-016 ) ) ;
#126 = SURFACE_STYLE_USAGE ( .BOTH. , #13 ) ;
#127 = ORIENTED_EDGE ( 'NONE', *, *, #156, .T. ) ;
#128 = ADVANCED_FACE ( 'NONE', ( #96 ), #181, .T. ) ;
#129 = EDGE_CURVE ( 'NONE', #120, #1, #87, .T. ) ;
#130 = ORIENTED_EDGE ( 'NONE', *, *, #11, .F. ) ;
#131 = PRODUCT_DEFINITION ( 'UNKNOWN', '', #117, #209 ) ;
#132 = VECTOR ( 'NONE', #124, 1000.000000000000000 ) ;
#133 = EDGE_LOOP ( 'NONE', ( #21, #214, #41 ) ) ;
#134 = DIRECTION ( 'NONE',  ( 0.0000000000000000000, -1.000000000000000000, 0.0000000000000000000 ) ) ;
#135 = CARTESIAN_POINT ( 'NONE',  ( 0.0000000000000000000, 8.897742025066791300E-017, 884.0560899243316700 ) ) ;
#136 =( NAMED_UNIT ( * ) SI_UNIT ( $, .STERADIAN. ) SOLID_ANGLE_UNIT ( ) );
#137 = DIRECTION ( 'NONE',  ( 1.000000000000000000, 0.0000000000000000000, 0.0000000000000000000 ) ) ;
#138 = AXIS2_PLACEMENT_3D ( 'NONE', #151, #73, #78 ) ;
#139 = DIRECTION ( 'NONE',  ( 0.0000000000000000000, -1.006468042749229800E-019, -1.000000000000000000 ) ) ;
#140 = EDGE_LOOP ( 'NONE', ( #68, #89, #192, #85 ) ) ;
#141 = COLOUR_RGB ( '',0.7921568627450980000, 0.8196078431372548800, 0.9333333333333333500 ) ;
#142 = VERTEX_POINT ( 'NONE', #109 ) ;
#143 = AXIS2_PLACEMENT_3D ( 'NONE', #77, #139, #175 ) ;
#144 = FACE_OUTER_BOUND ( 'NONE', #140, .T. ) ;
#145 = AXIS2_PLACEMENT_3D ( 'NONE', #27, #30, #46 ) ;
#146 = AXIS2_PLACEMENT_3D ( 'NONE', #22, #121, #43 ) ;
#147 = CONICAL_SURFACE ( 'NONE', #138, 3.175000000000011400, 0.7853981633974407300 ) ;
#148 = CARTESIAN_POINT ( 'NONE',  ( 1.842643704512397200E-049, -1.166938402425505000E-017, -115.9439100756682400 ) ) ;
#149 = DIRECTION ( 'NONE',  ( -0.0000000000000000000, 1.006468042749229700E-019, 1.000000000000000000 ) ) ;
#150 = VERTEX_POINT ( 'NONE', #59 ) ;
#151 = CARTESIAN_POINT ( 'NONE',  ( 0.0000000000000000000, 2.447886989134198500E-035, 2.432155702080359800E-016 ) ) ;
#152 = DIRECTION ( 'NONE',  ( 0.0000000000000000000, -1.000000000000000000, 0.0000000000000000000 ) ) ;
#153 = SURFACE_SIDE_STYLE ('',( #158 ) ) ;
#154 = DIRECTION ( 'NONE',  ( 0.0000000000000000000, -1.006468042749229800E-019, -1.000000000000000000 ) ) ;
#155 = ORIENTED_EDGE ( 'NONE', *, *, #199, .F. ) ;
#156 = EDGE_CURVE ( 'NONE', #142, #102, #188, .T. ) ;
#157 = ADVANCED_FACE ( 'NONE', ( #2 ), #147, .T. ) ;
#158 = SURFACE_STYLE_FILL_AREA ( #8 ) ;
#159 = ORIENTED_EDGE ( 'NONE', *, *, #79, .T. ) ;
#160 = PRESENTATION_LAYER_ASSIGNMENT (  '', '', ( #182 ) ) ;
#161 = AXIS2_PLACEMENT_3D ( 'NONE', #135, #149, #152 ) ;
#162 = FACE_OUTER_BOUND ( 'NONE', #58, .T. ) ;
#163 = AXIS2_PLACEMENT_3D ( 'NONE', #92, #154, #62 ) ;
#164 = VERTEX_POINT ( 'NONE', #185 ) ;
#165 = CYLINDRICAL_SURFACE ( 'NONE', #91, 3.968750000000007100 ) ;
#166 = UNCERTAINTY_MEASURE_WITH_UNIT (LENGTH_MEASURE( 1.000000000000000100E-005 ), #187, 'distance_accuracy_value', 'NONE');
#167 = ORIENTED_EDGE ( 'NONE', *, *, #79, .F. ) ;
#168 = DIRECTION ( 'NONE',  ( -0.0000000000000000000, 1.006468042749229700E-019, 1.000000000000000000 ) ) ;
#169 = DIRECTION ( 'NONE',  ( -0.0000000000000000000, 1.006468042749229700E-019, 1.000000000000000000 ) ) ;
#170 = CARTESIAN_POINT ( 'NONE',  ( 0.0000000000000000000, -1.150392972862369500E-017, -114.3000000000000000 ) ) ;
#171 = VECTOR ( 'NONE', #23, 1000.000000000000000 ) ;
#172 = DIRECTION ( 'NONE',  ( 0.0000000000000000000, -0.9238795325112849600, 0.3826834323650938300 ) ) ;
#173 =( NAMED_UNIT ( * ) PLANE_ANGLE_UNIT ( ) SI_UNIT ( $, .RADIAN. ) );
#174 = AXIS2_PLACEMENT_3D ( 'NONE', #177, #94, #137 ) ;
#175 = DIRECTION ( 'NONE',  ( 0.0000000000000000000, 1.000000000000000000, -1.006468042749256000E-019 ) ) ;
#176 = LINE ( 'NONE', #189, #70 ) ;
#177 = CARTESIAN_POINT ( 'NONE',  ( 0.0000000000000000000, 0.0000000000000000000, 0.0000000000000000000 ) ) ;
#178 = EDGE_CURVE ( 'NONE', #150, #102, #176, .T. ) ;
#179 = ORIENTED_EDGE ( 'NONE', *, *, #65, .F. ) ;
#180 = MECHANICAL_DESIGN_GEOMETRIC_PRESENTATION_REPRESENTATION (  '', ( #110 ), #48 ) ;
#181 = CONICAL_SURFACE ( 'NONE', #145, 2414.213562373064600, 1.178097245096168000 ) ;
#182 = STYLED_ITEM ( 'NONE', ( #116 ), #45 ) ;
#183 = PLANE ( 'NONE',  #25 ) ;
#184 = CARTESIAN_POINT ( 'NONE',  ( 0.0000000000000000000, -1.166938402425505000E-017, -115.9439100756682400 ) ) ;
#185 = CARTESIAN_POINT ( 'NONE',  ( 4.374285285704462900E-016, -3.175000000000011400, 2.435351238116088500E-016 ) ) ;
#186 = EDGE_CURVE ( 'NONE', #1, #15, #86, .T. ) ;
#187 =( LENGTH_UNIT ( ) NAMED_UNIT ( * ) SI_UNIT ( .MILLI., .METRE. ) );
#188 = LINE ( 'NONE', #12, #132 ) ;
#189 = CARTESIAN_POINT ( 'NONE',  ( 0.0000000000000000000, 3.175000000000011400, 2.428960166044631000E-016 ) ) ;
#190 = PRODUCT_CONTEXT ( 'NONE', #61, 'mechanical' ) ;
#191 =( NAMED_UNIT ( * ) SI_UNIT ( $, .STERADIAN. ) SOLID_ANGLE_UNIT ( ) );
#192 = ORIENTED_EDGE ( 'NONE', *, *, #186, .T. ) ;
#193 =( LENGTH_UNIT ( ) NAMED_UNIT ( * ) SI_UNIT ( .MILLI., .METRE. ) );
#194 = LINE ( 'NONE', #201, #171 ) ;
#195 = CONICAL_SURFACE ( 'NONE', #143, 3.175000000000011400, 0.7853981633974407300 ) ;
#196 =( GEOMETRIC_REPRESENTATION_CONTEXT ( 3 ) GLOBAL_UNCERTAINTY_ASSIGNED_CONTEXT ( ( #166 ) ) GLOBAL_UNIT_ASSIGNED_CONTEXT ( ( #187, #81, #205 ) ) REPRESENTATION_CONTEXT ( 'NONE', 'WORKASPACE' ) );
#197 = UNCERTAINTY_MEASURE_WITH_UNIT (LENGTH_MEASURE( 1.000000000000000100E-005 ), #108, 'distance_accuracy_value', 'NONE');
#198 = CLOSED_SHELL ( 'NONE', ( #212, #34, #128, #40, #52, #105, #157 ) ) ;
#199 = EDGE_CURVE ( 'NONE', #164, #150, #67, .T. ) ;
#200 = MANIFOLD_SOLID_BREP ( '¸ðµû±â1', #198 ) ;
#201 = CARTESIAN_POINT ( 'NONE',  ( 3.888253587292860400E-016, -3.175000000000011400, 2.435351238116088500E-016 ) ) ;
#202 = CARTESIAN_POINT ( 'NONE',  ( 0.0000000000000000000, -3.968750000000007100, -0.7937500000000077300 ) ) ;
#203 = CARTESIAN_POINT ( 'NONE',  ( 0.0000000000000000000, -1.150392972862369500E-017, -114.3000000000000000 ) ) ;
#204 = DIRECTION ( 'NONE',  ( -0.0000000000000000000, 1.006468042749229700E-019, 1.000000000000000000 ) ) ;
#205 =( NAMED_UNIT ( * ) SI_UNIT ( $, .STERADIAN. ) SOLID_ANGLE_UNIT ( ) );
#206 = DIRECTION ( 'NONE',  ( 0.0000000000000000000, 0.7071067811865421300, -0.7071067811865530100 ) ) ;
#207 = EDGE_LOOP ( 'NONE', ( #130, #167, #51, #80 ) ) ;
#208 = DIRECTION ( 'NONE',  ( -0.0000000000000000000, 1.006468042749229700E-019, 1.000000000000000000 ) ) ;
#209 = PRODUCT_DEFINITION_CONTEXT ( 'detailed design', #44, 'design' ) ;
#210 =( GEOMETRIC_REPRESENTATION_CONTEXT ( 3 ) GLOBAL_UNCERTAINTY_ASSIGNED_CONTEXT ( ( #197 ) ) GLOBAL_UNIT_ASSIGNED_CONTEXT ( ( #108, #173, #191 ) ) REPRESENTATION_CONTEXT ( 'NONE', 'WORKASPACE' ) );
#211 = ORIENTED_EDGE ( 'NONE', *, *, #63, .T. ) ;
#212 = ADVANCED_FACE ( 'NONE', ( #162 ), #195, .T. ) ;
#213 = EDGE_CURVE ( 'NONE', #15, #102, #76, .T. ) ;
#214 = ORIENTED_EDGE ( 'NONE', *, *, #35, .T. ) ;
ENDSEC;
END-ISO-10303-21;
