ISO-10303-21;
HEADER;
FILE_DESCRIPTION (( 'STEP AP214' ),
    '1' );
FILE_NAME ('03-0357.STEP',
    '2020-07-23T07:08:17',
    ( '' ),
    ( '' ),
    'SwSTEP 2.0',
    'SolidWorks 2014',
    '' );
FILE_SCHEMA (( 'AUTOMOTIVE_DESIGN' ));
ENDSEC;

DATA;
#1 = CONICAL_SURFACE ( 'NONE', #175, 2414.213562373065500, 1.178097245096168200 ) ;
#2 = PRESENTATION_LAYER_ASSIGNMENT (  '', '', ( #117 ) ) ;
#3 = FACE_OUTER_BOUND ( 'NONE', #19, .T. ) ;
#4 =( LENGTH_UNIT ( ) NAMED_UNIT ( * ) SI_UNIT ( .MILLI., .METRE. ) );
#5 = EDGE_LOOP ( 'NONE', ( #156, #96, #104, #166 ) ) ;
#6 = DIRECTION ( 'NONE',  ( -0.0000000000000000000, -7.804266760943747300E-020, 1.000000000000000000 ) ) ;
#7 = EDGE_CURVE ( 'NONE', #123, #37, #197, .T. ) ;
#8 = CARTESIAN_POINT ( 'NONE',  ( 1.842643704512397200E-049, 9.302772261414610400E-018, -119.2011055794516500 ) ) ;
#9 = DIRECTION ( 'NONE',  ( 0.0000000000000000000, 1.000000000000000000, 0.0000000000000000000 ) ) ;
#10 = VECTOR ( 'NONE', #189, 1000.000000000000200 ) ;
#11 = DIRECTION ( 'NONE',  ( 0.0000000000000000000, -1.000000000000000000, -7.804266760943747300E-020 ) ) ;
#12 = DIRECTION ( 'NONE',  ( -0.0000000000000000000, -7.804266760943747300E-020, 1.000000000000000000 ) ) ;
#13 = CARTESIAN_POINT ( 'NONE',  ( 0.0000000000000000000, 4.167187499999998900, 2.553292508805573900E-016 ) ) ;
#14 = CIRCLE ( 'NONE', #30, 4.167187500000014900 ) ;
#15 = EDGE_LOOP ( 'NONE', ( #136, #53, #181, #126 ) ) ;
#16 = MECHANICAL_DESIGN_GEOMETRIC_PRESENTATION_REPRESENTATION (  '', ( #117 ), #20 ) ;
#17 = UNCERTAINTY_MEASURE_WITH_UNIT (LENGTH_MEASURE( 1.000000000000000100E-005 ), #103, 'distance_accuracy_value', 'NONE');
#18 = CONICAL_SURFACE ( 'NONE', #162, 3.333749999999982400, 0.7853981633974498300 ) ;
#19 = EDGE_LOOP ( 'NONE', ( #163, #146 ) ) ;
#20 =( GEOMETRIC_REPRESENTATION_CONTEXT ( 3 ) GLOBAL_UNCERTAINTY_ASSIGNED_CONTEXT ( ( #191 ) ) GLOBAL_UNIT_ASSIGNED_CONTEXT ( ( #127, #157, #61 ) ) REPRESENTATION_CONTEXT ( 'NONE', 'WORKASPACE' ) );
#21 = APPLICATION_PROTOCOL_DEFINITION ( 'draft international standard', 'automotive_design', 1998, #22 ) ;
#22 = APPLICATION_CONTEXT ( 'automotive_design' ) ;
#23 = LINE ( 'NONE', #190, #65 ) ;
#24 = EDGE_CURVE ( 'NONE', #37, #70, #149, .T. ) ;
#25 = DIRECTION ( 'NONE',  ( 0.0000000000000000000, -1.000000000000000000, 0.0000000000000000000 ) ) ;
#26 = CARTESIAN_POINT ( 'NONE',  ( 0.0000000000000000000, -1.990119494368866900E-035, 2.550040324516286400E-016 ) ) ;
#27 = CARTESIAN_POINT ( 'NONE',  ( 0.0000000000000000000, 6.504368578574220800E-020, -0.8334375000000213700 ) ) ;
#28 = APPLICATION_PROTOCOL_DEFINITION ( 'draft international standard', 'automotive_design', 1998, #105 ) ;
#29 = AXIS2_PLACEMENT_3D ( 'NONE', #51, #12, #11 ) ;
#30 = AXIS2_PLACEMENT_3D ( 'NONE', #57, #6, #120 ) ;
#31 = CARTESIAN_POINT ( 'NONE',  ( 0.0000000000000000000, -4.167187500000014000, -117.4749999999999900 ) ) ;
#32 = EDGE_CURVE ( 'NONE', #70, #37, #55, .T. ) ;
#33 = VECTOR ( 'NONE', #201, 1000.000000000000000 ) ;
#34 = ORIENTED_EDGE ( 'NONE', *, *, #199, .F. ) ;
#35 = AXIS2_PLACEMENT_3D ( 'NONE', #87, #184, #72 ) ;
#36 = EDGE_CURVE ( 'NONE', #108, #70, #23, .T. ) ;
#37 = VERTEX_POINT ( 'NONE', #138 ) ;
#38 = ADVANCED_FACE ( 'NONE', ( #74 ), #85, .T. ) ;
#39 = CIRCLE ( 'NONE', #158, 3.333749999999982400 ) ;
#40 = ORIENTED_EDGE ( 'NONE', *, *, #164, .F. ) ;
#41 = ORIENTED_EDGE ( 'NONE', *, *, #176, .F. ) ;
#42 = LINE ( 'NONE', #154, #33 ) ;
#43 = EDGE_CURVE ( 'NONE', #108, #129, #193, .T. ) ;
#44 = CARTESIAN_POINT ( 'NONE',  ( 0.0000000000000000000, 9.302772261414607300E-018, -119.2011055794516500 ) ) ;
#45 = CARTESIAN_POINT ( 'NONE',  ( 0.0000000000000000000, 9.302772261414607300E-018, -119.2011055794516500 ) ) ;
#46 = FACE_OUTER_BOUND ( 'NONE', #112, .T. ) ;
#47 = PRODUCT_CONTEXT ( 'NONE', #105, 'mechanical' ) ;
#48 = MANIFOLD_SOLID_BREP ( '¸ðµû±â1', #168 ) ;
#49 = CARTESIAN_POINT ( 'NONE',  ( 5.103332833321878600E-016, 4.167187500000014000, -117.4749999999999900 ) ) ;
#50 = COLOUR_RGB ( '',0.7921568627450980000, 0.8196078431372548800, 0.9333333333333333500 ) ;
#51 = CARTESIAN_POINT ( 'NONE',  ( 0.0000000000000000000, 0.0000000000000000000, 0.0000000000000000000 ) ) ;
#52 = CARTESIAN_POINT ( 'NONE',  ( 0.0000000000000000000, -1.990119494368866100E-035, 2.550040324516286400E-016 ) ) ;
#53 = ORIENTED_EDGE ( 'NONE', *, *, #36, .T. ) ;
#54 = LINE ( 'NONE', #8, #160 ) ;
#55 = CIRCLE ( 'NONE', #133, 4.167187500000006900 ) ;
#56 = CONICAL_SURFACE ( 'NONE', #182, 3.333749999999982400, 0.7853981633974498300 ) ;
#57 = CARTESIAN_POINT ( 'NONE',  ( 0.0000000000000000000, 9.168062377418667000E-018, -117.4749999999999900 ) ) ;
#58 = EDGE_LOOP ( 'NONE', ( #118, #63, #68, #83 ) ) ;
#59 = DIRECTION ( 'NONE',  ( 0.0000000000000000000, -1.000000000000000000, 0.0000000000000000000 ) ) ;
#60 = FACE_OUTER_BOUND ( 'NONE', #58, .T. ) ;
#61 =( NAMED_UNIT ( * ) SI_UNIT ( $, .STERADIAN. ) SOLID_ANGLE_UNIT ( ) );
#62 = CARTESIAN_POINT ( 'NONE',  ( 0.0000000000000000000, -1.990119494368866900E-035, 2.550040324516286400E-016 ) ) ;
#63 = ORIENTED_EDGE ( 'NONE', *, *, #7, .T. ) ;
#64 = PRESENTATION_LAYER_ASSIGNMENT (  '', '', ( #81 ) ) ;
#65 = VECTOR ( 'NONE', #91, 1000.000000000000000 ) ;
#66 = ADVANCED_FACE ( 'NONE', ( #179 ), #134, .T. ) ;
#67 = PRODUCT_DEFINITION_CONTEXT ( 'detailed design', #22, 'design' ) ;
#68 = ORIENTED_EDGE ( 'NONE', *, *, #32, .F. ) ;
#69 = EDGE_CURVE ( 'NONE', #123, #114, #165, .T. ) ;
#70 = VERTEX_POINT ( 'NONE', #110 ) ;
#71 =( GEOMETRIC_REPRESENTATION_CONTEXT ( 3 ) GLOBAL_UNCERTAINTY_ASSIGNED_CONTEXT ( ( #17 ) ) GLOBAL_UNIT_ASSIGNED_CONTEXT ( ( #103, #205, #137 ) ) REPRESENTATION_CONTEXT ( 'NONE', 'WORKASPACE' ) );
#72 = DIRECTION ( 'NONE',  ( 0.0000000000000000000, -1.000000000000000000, -7.804266760943747300E-020 ) ) ;
#73 = FILL_AREA_STYLE_COLOUR ( '', #50 ) ;
#74 = FACE_OUTER_BOUND ( 'NONE', #99, .T. ) ;
#75 = CARTESIAN_POINT ( 'NONE',  ( 4.082666266657467000E-016, -3.333749999999982400, 2.547438577084857000E-016 ) ) ;
#76 = DIRECTION ( 'NONE',  ( 0.0000000000000000000, 1.000000000000000000, 7.804266760943747300E-020 ) ) ;
#77 = DIRECTION ( 'NONE',  ( 0.0000000000000000000, 1.000000000000000000, 0.0000000000000000000 ) ) ;
#78 = CARTESIAN_POINT ( 'NONE',  ( 0.0000000000000000000, -6.873989534802286500E-017, 880.7988944205483200 ) ) ;
#79 = DIRECTION ( 'NONE',  ( 0.0000000000000000000, 7.804266760943748500E-020, -1.000000000000000000 ) ) ;
#80 = DIRECTION ( 'NONE',  ( 0.0000000000000000000, 1.000000000000000000, 7.804266760943452400E-020 ) ) ;
#81 = STYLED_ITEM ( 'NONE', ( #169 ), #198 ) ;
#82 = SURFACE_STYLE_USAGE ( .BOTH. , #209 ) ;
#83 = ORIENTED_EDGE ( 'NONE', *, *, #194, .F. ) ;
#84 = PRODUCT_DEFINITION_FORMATION_WITH_SPECIFIED_SOURCE ( 'ANY', '', #130, .NOT_KNOWN. ) ;
#85 = CONICAL_SURFACE ( 'NONE', #151, 2414.213562373065500, 1.178097245096168200 ) ;
#86 = DIRECTION ( 'NONE',  ( 0.0000000000000000000, 1.000000000000000000, 7.804266760943452400E-020 ) ) ;
#87 = CARTESIAN_POINT ( 'NONE',  ( 0.0000000000000000000, 0.0000000000000000000, 0.0000000000000000000 ) ) ;
#88 = DIRECTION ( 'NONE',  ( 1.131426112287698300E-016, 0.9238795325112850700, 0.3826834323650937200 ) ) ;
#89 = PRESENTATION_STYLE_ASSIGNMENT (( #82 ) ) ;
#90 = DIRECTION ( 'NONE',  ( -0.0000000000000000000, -7.804266760943747300E-020, 1.000000000000000000 ) ) ;
#91 = DIRECTION ( 'NONE',  ( -0.0000000000000000000, -7.804266760943747300E-020, 1.000000000000000000 ) ) ;
#92 =( GEOMETRIC_REPRESENTATION_CONTEXT ( 3 ) GLOBAL_UNCERTAINTY_ASSIGNED_CONTEXT ( ( #172 ) ) GLOBAL_UNIT_ASSIGNED_CONTEXT ( ( #4, #187, #206 ) ) REPRESENTATION_CONTEXT ( 'NONE', 'WORKASPACE' ) );
#93 = FILL_AREA_STYLE_COLOUR ( '', #148 ) ;
#94 = DIRECTION ( 'NONE',  ( 0.0000000000000000000, -1.000000000000000000, 0.0000000000000000000 ) ) ;
#95 = FILL_AREA_STYLE ('',( #93 ) ) ;
#96 = ORIENTED_EDGE ( 'NONE', *, *, #43, .T. ) ;
#97 = FACE_OUTER_BOUND ( 'NONE', #214, .T. ) ;
#98 = PRODUCT_DEFINITION ( 'UNKNOWN', '', #84, #67 ) ;
#99 = EDGE_LOOP ( 'NONE', ( #34, #171, #208 ) ) ;
#100 = ADVANCED_FACE ( 'NONE', ( #46 ), #56, .T. ) ;
#101 = FILL_AREA_STYLE ('',( #73 ) ) ;
#102 = AXIS2_PLACEMENT_3D ( 'NONE', #143, #192, #94 ) ;
#103 =( LENGTH_UNIT ( ) NAMED_UNIT ( * ) SI_UNIT ( .MILLI., .METRE. ) );
#104 = ORIENTED_EDGE ( 'NONE', *, *, #204, .T. ) ;
#105 = APPLICATION_CONTEXT ( 'automotive_design' ) ;
#106 = DIRECTION ( 'NONE',  ( 0.0000000000000000000, 0.0000000000000000000, 1.000000000000000000 ) ) ;
#107 = DIRECTION ( 'NONE',  ( -0.0000000000000000000, -7.804266760943747300E-020, 1.000000000000000000 ) ) ;
#108 = VERTEX_POINT ( 'NONE', #49 ) ;
#109 = DIRECTION ( 'NONE',  ( 0.0000000000000000000, 1.000000000000000000, 7.804266760943452400E-020 ) ) ;
#110 = CARTESIAN_POINT ( 'NONE',  ( 5.103332833321869700E-016, 4.167187500000006900, -0.8334375000000213700 ) ) ;
#111 = SHAPE_DEFINITION_REPRESENTATION ( #131, #198 ) ;
#112 = EDGE_LOOP ( 'NONE', ( #203, #116, #161, #210 ) ) ;
#113 = DIRECTION ( 'NONE',  ( 0.0000000000000000000, 1.000000000000000000, 7.804266760943452400E-020 ) ) ;
#114 = VERTEX_POINT ( 'NONE', #142 ) ;
#115 = MECHANICAL_DESIGN_GEOMETRIC_PRESENTATION_REPRESENTATION (  '', ( #81 ), #92 ) ;
#116 = ORIENTED_EDGE ( 'NONE', *, *, #150, .F. ) ;
#117 = STYLED_ITEM ( 'NONE', ( #89 ), #48 ) ;
#118 = ORIENTED_EDGE ( 'NONE', *, *, #69, .F. ) ;
#119 = AXIS2_PLACEMENT_3D ( 'NONE', #188, #124, #77 ) ;
#120 = DIRECTION ( 'NONE',  ( 0.0000000000000000000, -1.000000000000000000, 0.0000000000000000000 ) ) ;
#121 = CARTESIAN_POINT ( 'NONE',  ( 0.0000000000000000000, 0.0000000000000000000, 0.0000000000000000000 ) ) ;
#122 = SURFACE_SIDE_STYLE ('',( #213 ) ) ;
#123 = VERTEX_POINT ( 'NONE', #178 ) ;
#124 = DIRECTION ( 'NONE',  ( 0.0000000000000000000, 7.804266760943748500E-020, -1.000000000000000000 ) ) ;
#125 = DIRECTION ( 'NONE',  ( 0.0000000000000000000, 7.804266760943747300E-020, -1.000000000000000000 ) ) ;
#126 = ORIENTED_EDGE ( 'NONE', *, *, #204, .F. ) ;
#127 =( LENGTH_UNIT ( ) NAMED_UNIT ( * ) SI_UNIT ( .MILLI., .METRE. ) );
#128 = CYLINDRICAL_SURFACE ( 'NONE', #35, 4.167187500000006900 ) ;
#129 = VERTEX_POINT ( 'NONE', #31 ) ;
#130 = PRODUCT ( '03-0357', '03-0357', '', ( #47 ) ) ;
#131 = PRODUCT_DEFINITION_SHAPE ( 'NONE', 'NONE',  #98 ) ;
#132 = ADVANCED_FACE ( 'NONE', ( #60 ), #18, .T. ) ;
#133 = AXIS2_PLACEMENT_3D ( 'NONE', #27, #140, #9 ) ;
#134 = CYLINDRICAL_SURFACE ( 'NONE', #29, 4.167187500000006900 ) ;
#135 = ADVANCED_FACE ( 'NONE', ( #3 ), #212, .F. ) ;
#136 = ORIENTED_EDGE ( 'NONE', *, *, #164, .T. ) ;
#137 =( NAMED_UNIT ( * ) SI_UNIT ( $, .STERADIAN. ) SOLID_ANGLE_UNIT ( ) );
#138 = CARTESIAN_POINT ( 'NONE',  ( 0.0000000000000000000, -4.167187500000006900, -0.8334375000000213700 ) ) ;
#139 = DIRECTION ( 'NONE',  ( 0.0000000000000000000, 0.7071067811865486800, -0.7071067811865464600 ) ) ;
#140 = DIRECTION ( 'NONE',  ( 0.0000000000000000000, 7.804266760943748500E-020, -1.000000000000000000 ) ) ;
#141 = LINE ( 'NONE', #44, #10 ) ;
#142 = CARTESIAN_POINT ( 'NONE',  ( 0.0000000000000000000, 3.333749999999982400, 2.552642071947716300E-016 ) ) ;
#143 = CARTESIAN_POINT ( 'NONE',  ( 0.0000000000000000000, 9.168062377418667000E-018, -117.4749999999999900 ) ) ;
#144 = AXIS2_PLACEMENT_3D ( 'NONE', #13, #125, #76 ) ;
#145 = VECTOR ( 'NONE', #139, 1000.000000000000000 ) ;
#146 = ORIENTED_EDGE ( 'NONE', *, *, #69, .T. ) ;
#147 = AXIS2_PLACEMENT_3D ( 'NONE', #62, #159, #109 ) ;
#148 = COLOUR_RGB ( '',0.7921568627450980000, 0.8196078431372548800, 0.9333333333333333500 ) ;
#149 = CIRCLE ( 'NONE', #119, 4.167187500000006900 ) ;
#150 = EDGE_CURVE ( 'NONE', #114, #123, #39, .T. ) ;
#151 = AXIS2_PLACEMENT_3D ( 'NONE', #78, #107, #59 ) ;
#152 = VERTEX_POINT ( 'NONE', #45 ) ;
#153 = AXIS2_PLACEMENT_3D ( 'NONE', #121, #106, #155 ) ;
#154 = CARTESIAN_POINT ( 'NONE',  ( 0.0000000000000000000, -4.167187500000006900, -3.252184289287032500E-019 ) ) ;
#155 = DIRECTION ( 'NONE',  ( 1.000000000000000000, 0.0000000000000000000, 0.0000000000000000000 ) ) ;
#156 = ORIENTED_EDGE ( 'NONE', *, *, #36, .F. ) ;
#157 =( NAMED_UNIT ( * ) PLANE_ANGLE_UNIT ( ) SI_UNIT ( $, .RADIAN. ) );
#158 = AXIS2_PLACEMENT_3D ( 'NONE', #26, #185, #86 ) ;
#159 = DIRECTION ( 'NONE',  ( -0.0000000000000000000, -7.804266760943747300E-020, 1.000000000000000000 ) ) ;
#160 = VECTOR ( 'NONE', #88, 1000.000000000000200 ) ;
#161 = ORIENTED_EDGE ( 'NONE', *, *, #194, .T. ) ;
#162 = AXIS2_PLACEMENT_3D ( 'NONE', #52, #79, #113 ) ;
#163 = ORIENTED_EDGE ( 'NONE', *, *, #150, .T. ) ;
#164 = EDGE_CURVE ( 'NONE', #129, #108, #14, .T. ) ;
#165 = CIRCLE ( 'NONE', #147, 3.333749999999982400 ) ;
#166 = ORIENTED_EDGE ( 'NONE', *, *, #24, .T. ) ;
#167 = ADVANCED_FACE ( 'NONE', ( #202 ), #128, .T. ) ;
#168 = CLOSED_SHELL ( 'NONE', ( #132, #66, #196, #135, #38, #167, #100 ) ) ;
#169 = PRESENTATION_STYLE_ASSIGNMENT (( #173 ) ) ;
#170 = PRODUCT_RELATED_PRODUCT_CATEGORY ( 'part', '', ( #130 ) ) ;
#171 = ORIENTED_EDGE ( 'NONE', *, *, #176, .T. ) ;
#172 = UNCERTAINTY_MEASURE_WITH_UNIT (LENGTH_MEASURE( 1.000000000000000100E-005 ), #4, 'distance_accuracy_value', 'NONE');
#173 = SURFACE_STYLE_USAGE ( .BOTH. , #122 ) ;
#174 = DIRECTION ( 'NONE',  ( 8.659560562354947600E-017, -0.7071067811865486800, -0.7071067811865464600 ) ) ;
#175 = AXIS2_PLACEMENT_3D ( 'NONE', #183, #90, #25 ) ;
#176 = EDGE_CURVE ( 'NONE', #152, #129, #141, .T. ) ;
#177 = CARTESIAN_POINT ( 'NONE',  ( 0.0000000000000000000, -1.990119494368866100E-035, 2.550040324516286400E-016 ) ) ;
#178 = CARTESIAN_POINT ( 'NONE',  ( 4.592999549989667900E-016, -3.333749999999982400, 2.547438577084857000E-016 ) ) ;
#179 = FACE_OUTER_BOUND ( 'NONE', #15, .T. ) ;
#180 = LINE ( 'NONE', #207, #145 ) ;
#181 = ORIENTED_EDGE ( 'NONE', *, *, #32, .T. ) ;
#182 = AXIS2_PLACEMENT_3D ( 'NONE', #177, #211, #80 ) ;
#183 = CARTESIAN_POINT ( 'NONE',  ( 0.0000000000000000000, -6.873989534802286500E-017, 880.7988944205483200 ) ) ;
#184 = DIRECTION ( 'NONE',  ( -0.0000000000000000000, -7.804266760943747300E-020, 1.000000000000000000 ) ) ;
#185 = DIRECTION ( 'NONE',  ( -0.0000000000000000000, -7.804266760943747300E-020, 1.000000000000000000 ) ) ;
#186 = SURFACE_STYLE_FILL_AREA ( #95 ) ;
#187 =( NAMED_UNIT ( * ) PLANE_ANGLE_UNIT ( ) SI_UNIT ( $, .RADIAN. ) );
#188 = CARTESIAN_POINT ( 'NONE',  ( 0.0000000000000000000, 6.504368578574220800E-020, -0.8334375000000213700 ) ) ;
#189 = DIRECTION ( 'NONE',  ( 0.0000000000000000000, -0.9238795325112850700, 0.3826834323650937200 ) ) ;
#190 = CARTESIAN_POINT ( 'NONE',  ( 5.103332833321869700E-016, 4.167187500000006900, 3.252184289287032500E-019 ) ) ;
#191 = UNCERTAINTY_MEASURE_WITH_UNIT (LENGTH_MEASURE( 1.000000000000000100E-005 ), #127, 'distance_accuracy_value', 'NONE');
#192 = DIRECTION ( 'NONE',  ( -0.0000000000000000000, -7.804266760943747300E-020, 1.000000000000000000 ) ) ;
#193 = CIRCLE ( 'NONE', #102, 4.167187500000014900 ) ;
#194 = EDGE_CURVE ( 'NONE', #114, #70, #180, .T. ) ;
#195 = VECTOR ( 'NONE', #174, 1000.000000000000000 ) ;
#196 = ADVANCED_FACE ( 'NONE', ( #97 ), #1, .T. ) ;
#197 = LINE ( 'NONE', #75, #195 ) ;
#198 = ADVANCED_BREP_SHAPE_REPRESENTATION ( '03-0357', ( #48, #153 ), #71 ) ;
#199 = EDGE_CURVE ( 'NONE', #152, #108, #54, .T. ) ;
#200 = ORIENTED_EDGE ( 'NONE', *, *, #199, .T. ) ;
#201 = DIRECTION ( 'NONE',  ( -0.0000000000000000000, -7.804266760943747300E-020, 1.000000000000000000 ) ) ;
#202 = FACE_OUTER_BOUND ( 'NONE', #5, .T. ) ;
#203 = ORIENTED_EDGE ( 'NONE', *, *, #7, .F. ) ;
#204 = EDGE_CURVE ( 'NONE', #129, #37, #42, .T. ) ;
#205 =( NAMED_UNIT ( * ) PLANE_ANGLE_UNIT ( ) SI_UNIT ( $, .RADIAN. ) );
#206 =( NAMED_UNIT ( * ) SI_UNIT ( $, .STERADIAN. ) SOLID_ANGLE_UNIT ( ) );
#207 = CARTESIAN_POINT ( 'NONE',  ( 0.0000000000000000000, 3.333749999999982400, 2.552642071947716300E-016 ) ) ;
#208 = ORIENTED_EDGE ( 'NONE', *, *, #43, .F. ) ;
#209 = SURFACE_SIDE_STYLE ('',( #186 ) ) ;
#210 = ORIENTED_EDGE ( 'NONE', *, *, #24, .F. ) ;
#211 = DIRECTION ( 'NONE',  ( 0.0000000000000000000, 7.804266760943748500E-020, -1.000000000000000000 ) ) ;
#212 = PLANE ( 'NONE',  #144 ) ;
#213 = SURFACE_STYLE_FILL_AREA ( #101 ) ;
#214 = EDGE_LOOP ( 'NONE', ( #41, #200, #40 ) ) ;
ENDSEC;
END-ISO-10303-21;
