ISO-10303-21;
HEADER;
FILE_DESCRIPTION (( 'STEP AP214' ),
    '1' );
FILE_NAME ('03-0358.STEP',
    '2020-07-23T07:08:58',
    ( '' ),
    ( '' ),
    'SwSTEP 2.0',
    'SolidWorks 2014',
    '' );
FILE_SCHEMA (( 'AUTOMOTIVE_DESIGN' ));
ENDSEC;

DATA;
#1 = CARTESIAN_POINT ( 'NONE',  ( 5.346348682527673500E-016, 4.365625000000008500, -4.444935802851355500E-019 ) ) ;
#2 = COLOUR_RGB ( '',0.7921568627450980000, 0.8196078431372548800, 0.9333333333333333500 ) ;
#3 = APPLICATION_PROTOCOL_DEFINITION ( 'draft international standard', 'automotive_design', 1998, #189 ) ;
#4 = UNCERTAINTY_MEASURE_WITH_UNIT (LENGTH_MEASURE( 1.000000000000000100E-005 ), #13, 'distance_accuracy_value', 'NONE');
#5 = VECTOR ( 'NONE', #86, 1000.000000000000000 ) ;
#6 = EDGE_CURVE ( 'NONE', #164, #78, #206, .T. ) ;
#7 = VERTEX_POINT ( 'NONE', #30 ) ;
#8 = PRODUCT_DEFINITION ( 'UNKNOWN', '', #149, #101 ) ;
#9 = PLANE ( 'NONE',  #145 ) ;
#10 = DIRECTION ( 'NONE',  ( 0.0000000000000000000, -1.018167113036815500E-019, -1.000000000000000000 ) ) ;
#11 = DIRECTION ( 'NONE',  ( 0.0000000000000000000, -1.018167113036815500E-019, -1.000000000000000000 ) ) ;
#12 = DIRECTION ( 'NONE',  ( 0.0000000000000000000, -1.000000000000000000, 1.018167113036815300E-019 ) ) ;
#13 =( LENGTH_UNIT ( ) NAMED_UNIT ( * ) SI_UNIT ( .MILLI., .METRE. ) );
#14 = ADVANCED_FACE ( 'NONE', ( #39 ), #135, .T. ) ;
#15 = DIRECTION ( 'NONE',  ( 0.0000000000000000000, 0.0000000000000000000, 1.000000000000000000 ) ) ;
#16 = LINE ( 'NONE', #89, #49 ) ;
#17 = AXIS2_PLACEMENT_3D ( 'NONE', #204, #116, #12 ) ;
#18 = STYLED_ITEM ( 'NONE', ( #32 ), #112 ) ;
#19 = CIRCLE ( 'NONE', #83, 4.365625000000008500 ) ;
#20 = ORIENTED_EDGE ( 'NONE', *, *, #54, .F. ) ;
#21 = CARTESIAN_POINT ( 'NONE',  ( 0.0000000000000000000, 4.365625000000000500, 2.670951873362406300E-016 ) ) ;
#22 = DIRECTION ( 'NONE',  ( 0.0000000000000000000, 1.000000000000000000, -1.018167113036831800E-019 ) ) ;
#23 = AXIS2_PLACEMENT_3D ( 'NONE', #136, #208, #36 ) ;
#24 = CARTESIAN_POINT ( 'NONE',  ( 5.346348682527673500E-016, 4.365625000000008500, -0.8731250000000176900 ) ) ;
#25 = PRESENTATION_LAYER_ASSIGNMENT (  '', '', ( #18 ) ) ;
#26 = ADVANCED_FACE ( 'NONE', ( #61 ), #184, .T. ) ;
#27 = DIRECTION ( 'NONE',  ( 8.659560562354907000E-017, -0.7071067811865454600, -0.7071067811865496800 ) ) ;
#28 = PRESENTATION_STYLE_ASSIGNMENT (( #100 ) ) ;
#29 = ORIENTED_EDGE ( 'NONE', *, *, #178, .T. ) ;
#30 = CARTESIAN_POINT ( 'NONE',  ( 4.811713814274899900E-016, -3.492499999999995700, 2.678952757807539200E-016 ) ) ;
#31 = EDGE_CURVE ( 'NONE', #146, #188, #198, .T. ) ;
#32 = PRESENTATION_STYLE_ASSIGNMENT (( #162 ) ) ;
#33 = VERTEX_POINT ( 'NONE', #37 ) ;
#34 = CONICAL_SURFACE ( 'NONE', #110, 2414.213562373067400, 1.178097245096168400 ) ;
#35 = CIRCLE ( 'NONE', #48, 3.492499999999995700 ) ;
#36 = DIRECTION ( 'NONE',  ( 0.0000000000000000000, 1.000000000000000000, -1.018167113036831800E-019 ) ) ;
#37 = CARTESIAN_POINT ( 'NONE',  ( 0.0000000000000000000, -4.365625000000008500, -0.8731250000000176900 ) ) ;
#38 = DIRECTION ( 'NONE',  ( -0.0000000000000000000, 1.018167113036815500E-019, 1.000000000000000000 ) ) ;
#39 = FACE_OUTER_BOUND ( 'NONE', #63, .T. ) ;
#40 = ORIENTED_EDGE ( 'NONE', *, *, #122, .T. ) ;
#41 = DIRECTION ( 'NONE',  ( 0.0000000000000000000, 1.000000000000000000, -1.018167113036815500E-019 ) ) ;
#42 = FILL_AREA_STYLE_COLOUR ( '', #170 ) ;
#43 =( NAMED_UNIT ( * ) SI_UNIT ( $, .STERADIAN. ) SOLID_ANGLE_UNIT ( ) );
#44 = STYLED_ITEM ( 'NONE', ( #28 ), #150 ) ;
#45 = CYLINDRICAL_SURFACE ( 'NONE', #205, 4.365625000000008500 ) ;
#46 = CLOSED_SHELL ( 'NONE', ( #26, #95, #176, #126, #14, #120, #91 ) ) ;
#47 = EDGE_CURVE ( 'NONE', #137, #7, #35, .T. ) ;
#48 = AXIS2_PLACEMENT_3D ( 'NONE', #186, #38, #118 ) ;
#49 = VECTOR ( 'NONE', #191, 1000.000000000000000 ) ;
#50 = VECTOR ( 'NONE', #27, 1000.000000000000100 ) ;
#51 = SURFACE_SIDE_STYLE ('',( #128 ) ) ;
#52 = CARTESIAN_POINT ( 'NONE',  ( 0.0000000000000000000, 2.724001045415698300E-035, 2.675396809165257800E-016 ) ) ;
#53 = CARTESIAN_POINT ( 'NONE',  ( 0.0000000000000000000, 0.0000000000000000000, 0.0000000000000000000 ) ) ;
#54 = EDGE_CURVE ( 'NONE', #188, #164, #152, .T. ) ;
#55 = EDGE_LOOP ( 'NONE', ( #200, #129, #153, #102 ) ) ;
#56 =( LENGTH_UNIT ( ) NAMED_UNIT ( * ) SI_UNIT ( .MILLI., .METRE. ) );
#57 = PRODUCT_DEFINITION_SHAPE ( 'NONE', 'NONE',  #8 ) ;
#58 = APPLICATION_PROTOCOL_DEFINITION ( 'draft international standard', 'automotive_design', 1998, #76 ) ;
#59 = VECTOR ( 'NONE', #158, 1000.000000000000000 ) ;
#60 = PRESENTATION_LAYER_ASSIGNMENT (  '', '', ( #44 ) ) ;
#61 = FACE_OUTER_BOUND ( 'NONE', #75, .T. ) ;
#62 = EDGE_LOOP ( 'NONE', ( #196, #133, #20 ) ) ;
#63 = EDGE_LOOP ( 'NONE', ( #96, #214, #199 ) ) ;
#64 = DIRECTION ( 'NONE',  ( -0.0000000000000000000, 1.018167113036815500E-019, 1.000000000000000000 ) ) ;
#65 =( GEOMETRIC_REPRESENTATION_CONTEXT ( 3 ) GLOBAL_UNCERTAINTY_ASSIGNED_CONTEXT ( ( #210 ) ) GLOBAL_UNIT_ASSIGNED_CONTEXT ( ( #175, #127, #72 ) ) REPRESENTATION_CONTEXT ( 'NONE', 'WORKASPACE' ) );
#66 = DIRECTION ( 'NONE',  ( 0.0000000000000000000, -1.000000000000000000, 0.0000000000000000000 ) ) ;
#67 = CONICAL_SURFACE ( 'NONE', #195, 3.492499999999995700, 0.7853981633974452800 ) ;
#68 = DIRECTION ( 'NONE',  ( 0.0000000000000000000, 1.000000000000000000, 0.0000000000000000000 ) ) ;
#69 = DIRECTION ( 'NONE',  ( 0.0000000000000000000, -1.000000000000000000, 0.0000000000000000000 ) ) ;
#70 = FILL_AREA_STYLE ('',( #42 ) ) ;
#71 = CARTESIAN_POINT ( 'NONE',  ( 4.277078946022125900E-016, -3.492499999999995700, 2.678952757807539200E-016 ) ) ;
#72 =( NAMED_UNIT ( * ) SI_UNIT ( $, .STERADIAN. ) SOLID_ANGLE_UNIT ( ) );
#73 = EDGE_CURVE ( 'NONE', #78, #33, #213, .T. ) ;
#74 = LINE ( 'NONE', #212, #132 ) ;
#75 = EDGE_LOOP ( 'NONE', ( #193, #29, #203, #144 ) ) ;
#76 = APPLICATION_CONTEXT ( 'automotive_design' ) ;
#77 = LINE ( 'NONE', #71, #50 ) ;
#78 = VERTEX_POINT ( 'NONE', #24 ) ;
#79 = DIRECTION ( 'NONE',  ( -0.0000000000000000000, 1.018167113036815500E-019, 1.000000000000000000 ) ) ;
#80 = CIRCLE ( 'NONE', #23, 3.492499999999995700 ) ;
#81 =( GEOMETRIC_REPRESENTATION_CONTEXT ( 3 ) GLOBAL_UNCERTAINTY_ASSIGNED_CONTEXT ( ( #82 ) ) GLOBAL_UNIT_ASSIGNED_CONTEXT ( ( #56, #104, #190 ) ) REPRESENTATION_CONTEXT ( 'NONE', 'WORKASPACE' ) );
#82 = UNCERTAINTY_MEASURE_WITH_UNIT (LENGTH_MEASURE( 1.000000000000000100E-005 ), #56, 'distance_accuracy_value', 'NONE');
#83 = AXIS2_PLACEMENT_3D ( 'NONE', #98, #11, #156 ) ;
#84 = CARTESIAN_POINT ( 'NONE',  ( 0.0000000000000000000, 3.492499999999995700, 2.671840860522976900E-016 ) ) ;
#85 = DIRECTION ( 'NONE',  ( 0.0000000000000000000, -1.000000000000000000, 0.0000000000000000000 ) ) ;
#86 = DIRECTION ( 'NONE',  ( -0.0000000000000000000, 1.018167113036815500E-019, 1.000000000000000000 ) ) ;
#87 = DIRECTION ( 'NONE',  ( -0.0000000000000000000, 1.018167113036815500E-019, 1.000000000000000000 ) ) ;
#88 = AXIS2_PLACEMENT_3D ( 'NONE', #173, #10, #68 ) ;
#89 = CARTESIAN_POINT ( 'NONE',  ( 1.842643704512397200E-049, -1.246830148813105600E-017, -122.4583010832350600 ) ) ;
#90 = CARTESIAN_POINT ( 'NONE',  ( 5.346348682527682300E-016, 4.365625000000014700, -120.6499999999999900 ) ) ;
#91 = ADVANCED_FACE ( 'NONE', ( #166 ), #67, .T. ) ;
#92 = SHAPE_DEFINITION_REPRESENTATION ( #57, #112 ) ;
#93 = PRODUCT_RELATED_PRODUCT_CATEGORY ( 'part', '', ( #114 ) ) ;
#94 = MECHANICAL_DESIGN_GEOMETRIC_PRESENTATION_REPRESENTATION (  '', ( #44 ), #65 ) ;
#95 = ADVANCED_FACE ( 'NONE', ( #202 ), #45, .T. ) ;
#96 = ORIENTED_EDGE ( 'NONE', *, *, #163, .F. ) ;
#97 = ORIENTED_EDGE ( 'NONE', *, *, #142, .F. ) ;
#98 = CARTESIAN_POINT ( 'NONE',  ( 0.0000000000000000000, -8.889871605702874700E-020, -0.8731250000000176900 ) ) ;
#99 = AXIS2_PLACEMENT_3D ( 'NONE', #105, #15, #141 ) ;
#100 = SURFACE_STYLE_USAGE ( .BOTH. , #51 ) ;
#101 = PRODUCT_DEFINITION_CONTEXT ( 'detailed design', #189, 'design' ) ;
#102 = ORIENTED_EDGE ( 'NONE', *, *, #147, .T. ) ;
#103 = DIRECTION ( 'NONE',  ( -0.0000000000000000000, 1.018167113036815500E-019, 1.000000000000000000 ) ) ;
#104 =( NAMED_UNIT ( * ) PLANE_ANGLE_UNIT ( ) SI_UNIT ( $, .RADIAN. ) );
#105 = CARTESIAN_POINT ( 'NONE',  ( 0.0000000000000000000, 0.0000000000000000000, 0.0000000000000000000 ) ) ;
#106 = FACE_OUTER_BOUND ( 'NONE', #55, .T. ) ;
#107 = DIRECTION ( 'NONE',  ( -0.0000000000000000000, 1.018167113036815500E-019, 1.000000000000000000 ) ) ;
#108 = ORIENTED_EDGE ( 'NONE', *, *, #6, .T. ) ;
#109 = ORIENTED_EDGE ( 'NONE', *, *, #73, .T. ) ;
#110 = AXIS2_PLACEMENT_3D ( 'NONE', #123, #107, #174 ) ;
#111 = CARTESIAN_POINT ( 'NONE',  ( 0.0000000000000000000, 8.934840981555049300E-017, 877.5416989167649700 ) ) ;
#112 = ADVANCED_BREP_SHAPE_REPRESENTATION ( '03-0358', ( #150, #99 ), #151 ) ;
#113 = ORIENTED_EDGE ( 'NONE', *, *, #147, .F. ) ;
#114 = PRODUCT ( '03-0358', '03-0358', '', ( #139 ) ) ;
#115 = FACE_OUTER_BOUND ( 'NONE', #62, .T. ) ;
#116 = DIRECTION ( 'NONE',  ( -0.0000000000000000000, 1.018167113036815500E-019, 1.000000000000000000 ) ) ;
#117 = ORIENTED_EDGE ( 'NONE', *, *, #47, .T. ) ;
#118 = DIRECTION ( 'NONE',  ( 0.0000000000000000000, 1.000000000000000000, -1.018167113036831800E-019 ) ) ;
#119 = CARTESIAN_POINT ( 'NONE',  ( 0.0000000000000000000, -1.228418621878917800E-017, -120.6499999999999900 ) ) ;
#120 = ADVANCED_FACE ( 'NONE', ( #106 ), #143, .T. ) ;
#121 = DIRECTION ( 'NONE',  ( 0.0000000000000000000, 0.7071067811865454600, -0.7071067811865496800 ) ) ;
#122 = EDGE_CURVE ( 'NONE', #7, #137, #80, .T. ) ;
#123 = CARTESIAN_POINT ( 'NONE',  ( 0.0000000000000000000, 8.934840981555049300E-017, 877.5416989167649700 ) ) ;
#124 = VECTOR ( 'NONE', #197, 1000.000000000000000 ) ;
#125 = FILL_AREA_STYLE ('',( #160 ) ) ;
#126 = ADVANCED_FACE ( 'NONE', ( #211 ), #9, .F. ) ;
#127 =( NAMED_UNIT ( * ) PLANE_ANGLE_UNIT ( ) SI_UNIT ( $, .RADIAN. ) );
#128 = SURFACE_STYLE_FILL_AREA ( #70 ) ;
#129 = ORIENTED_EDGE ( 'NONE', *, *, #131, .T. ) ;
#130 = SURFACE_STYLE_FILL_AREA ( #125 ) ;
#131 = EDGE_CURVE ( 'NONE', #164, #188, #165, .T. ) ;
#132 = VECTOR ( 'NONE', #121, 1000.000000000000100 ) ;
#133 = ORIENTED_EDGE ( 'NONE', *, *, #163, .T. ) ;
#134 = MECHANICAL_DESIGN_GEOMETRIC_PRESENTATION_REPRESENTATION (  '', ( #18 ), #81 ) ;
#135 = CONICAL_SURFACE ( 'NONE', #180, 2414.213562373067400, 1.178097245096168400 ) ;
#136 = CARTESIAN_POINT ( 'NONE',  ( 0.0000000000000000000, 2.724001045415698300E-035, 2.675396809165257800E-016 ) ) ;
#137 = VERTEX_POINT ( 'NONE', #84 ) ;
#138 = CARTESIAN_POINT ( 'NONE',  ( 0.0000000000000000000, 2.724001045415698300E-035, 2.675396809165257800E-016 ) ) ;
#139 = PRODUCT_CONTEXT ( 'NONE', #76, 'mechanical' ) ;
#140 = CARTESIAN_POINT ( 'NONE',  ( 0.0000000000000000000, -4.365625000000014700, -120.6499999999999900 ) ) ;
#141 = DIRECTION ( 'NONE',  ( 1.000000000000000000, 0.0000000000000000000, 0.0000000000000000000 ) ) ;
#142 = EDGE_CURVE ( 'NONE', #188, #33, #192, .T. ) ;
#143 = CYLINDRICAL_SURFACE ( 'NONE', #17, 4.365625000000008500 ) ;
#144 = ORIENTED_EDGE ( 'NONE', *, *, #182, .F. ) ;
#145 = AXIS2_PLACEMENT_3D ( 'NONE', #21, #154, #41 ) ;
#146 = VERTEX_POINT ( 'NONE', #183 ) ;
#147 = EDGE_CURVE ( 'NONE', #33, #78, #19, .T. ) ;
#148 = EDGE_LOOP ( 'NONE', ( #171, #157, #177, #113 ) ) ;
#149 = PRODUCT_DEFINITION_FORMATION_WITH_SPECIFIED_SOURCE ( 'ANY', '', #114, .NOT_KNOWN. ) ;
#150 = MANIFOLD_SOLID_BREP ( '¸ðµû±â1', #46 ) ;
#151 =( GEOMETRIC_REPRESENTATION_CONTEXT ( 3 ) GLOBAL_UNCERTAINTY_ASSIGNED_CONTEXT ( ( #4 ) ) GLOBAL_UNIT_ASSIGNED_CONTEXT ( ( #13, #161, #43 ) ) REPRESENTATION_CONTEXT ( 'NONE', 'WORKASPACE' ) );
#152 = CIRCLE ( 'NONE', #201, 4.365625000000015600 ) ;
#153 = ORIENTED_EDGE ( 'NONE', *, *, #142, .T. ) ;
#154 = DIRECTION ( 'NONE',  ( 0.0000000000000000000, -1.018167113036815500E-019, -1.000000000000000000 ) ) ;
#155 = CARTESIAN_POINT ( 'NONE',  ( 0.0000000000000000000, -4.365625000000008500, 4.444935802851355500E-019 ) ) ;
#156 = DIRECTION ( 'NONE',  ( 0.0000000000000000000, 1.000000000000000000, 0.0000000000000000000 ) ) ;
#157 = ORIENTED_EDGE ( 'NONE', *, *, #47, .F. ) ;
#158 = DIRECTION ( 'NONE',  ( 0.0000000000000000000, -0.9238795325112851800, 0.3826834323650935000 ) ) ;
#159 = DIRECTION ( 'NONE',  ( 0.0000000000000000000, -1.018167113036815500E-019, -1.000000000000000000 ) ) ;
#160 = FILL_AREA_STYLE_COLOUR ( '', #2 ) ;
#161 =( NAMED_UNIT ( * ) PLANE_ANGLE_UNIT ( ) SI_UNIT ( $, .RADIAN. ) );
#162 = SURFACE_STYLE_USAGE ( .BOTH. , #209 ) ;
#163 = EDGE_CURVE ( 'NONE', #146, #164, #16, .T. ) ;
#164 = VERTEX_POINT ( 'NONE', #90 ) ;
#165 = CIRCLE ( 'NONE', #181, 4.365625000000015600 ) ;
#166 = FACE_OUTER_BOUND ( 'NONE', #148, .T. ) ;
#167 = EDGE_LOOP ( 'NONE', ( #117, #40 ) ) ;
#168 = DIRECTION ( 'NONE',  ( 0.0000000000000000000, -1.000000000000000000, 1.018167113036815300E-019 ) ) ;
#169 = CARTESIAN_POINT ( 'NONE',  ( 0.0000000000000000000, -1.246830148813105900E-017, -122.4583010832350600 ) ) ;
#170 = COLOUR_RGB ( '',0.7921568627450980000, 0.8196078431372548800, 0.9333333333333333500 ) ;
#171 = ORIENTED_EDGE ( 'NONE', *, *, #178, .F. ) ;
#172 = CARTESIAN_POINT ( 'NONE',  ( 0.0000000000000000000, -1.228418621878917800E-017, -120.6499999999999900 ) ) ;
#173 = CARTESIAN_POINT ( 'NONE',  ( 0.0000000000000000000, -8.889871605702874700E-020, -0.8731250000000176900 ) ) ;
#174 = DIRECTION ( 'NONE',  ( 0.0000000000000000000, -1.000000000000000000, 0.0000000000000000000 ) ) ;
#175 =( LENGTH_UNIT ( ) NAMED_UNIT ( * ) SI_UNIT ( .MILLI., .METRE. ) );
#176 = ADVANCED_FACE ( 'NONE', ( #115 ), #34, .T. ) ;
#177 = ORIENTED_EDGE ( 'NONE', *, *, #182, .T. ) ;
#178 = EDGE_CURVE ( 'NONE', #7, #33, #77, .T. ) ;
#179 = DIRECTION ( 'NONE',  ( 0.0000000000000000000, 1.000000000000000000, -1.018167113036831800E-019 ) ) ;
#180 = AXIS2_PLACEMENT_3D ( 'NONE', #111, #79, #69 ) ;
#181 = AXIS2_PLACEMENT_3D ( 'NONE', #119, #64, #85 ) ;
#182 = EDGE_CURVE ( 'NONE', #137, #78, #74, .T. ) ;
#183 = CARTESIAN_POINT ( 'NONE',  ( 0.0000000000000000000, -1.246830148813105600E-017, -122.4583010832350600 ) ) ;
#184 = CONICAL_SURFACE ( 'NONE', #194, 3.492499999999995700, 0.7853981633974452800 ) ;
#185 = ORIENTED_EDGE ( 'NONE', *, *, #54, .T. ) ;
#186 = CARTESIAN_POINT ( 'NONE',  ( 0.0000000000000000000, 2.724001045415698300E-035, 2.675396809165257800E-016 ) ) ;
#187 = DIRECTION ( 'NONE',  ( 0.0000000000000000000, -1.018167113036815500E-019, -1.000000000000000000 ) ) ;
#188 = VERTEX_POINT ( 'NONE', #140 ) ;
#189 = APPLICATION_CONTEXT ( 'automotive_design' ) ;
#190 =( NAMED_UNIT ( * ) SI_UNIT ( $, .STERADIAN. ) SOLID_ANGLE_UNIT ( ) );
#191 = DIRECTION ( 'NONE',  ( 1.131426112287698500E-016, 0.9238795325112851800, 0.3826834323650935000 ) ) ;
#192 = LINE ( 'NONE', #155, #5 ) ;
#193 = ORIENTED_EDGE ( 'NONE', *, *, #122, .F. ) ;
#194 = AXIS2_PLACEMENT_3D ( 'NONE', #138, #159, #179 ) ;
#195 = AXIS2_PLACEMENT_3D ( 'NONE', #52, #187, #22 ) ;
#196 = ORIENTED_EDGE ( 'NONE', *, *, #31, .F. ) ;
#197 = DIRECTION ( 'NONE',  ( -0.0000000000000000000, 1.018167113036815500E-019, 1.000000000000000000 ) ) ;
#198 = LINE ( 'NONE', #169, #59 ) ;
#199 = ORIENTED_EDGE ( 'NONE', *, *, #131, .F. ) ;
#200 = ORIENTED_EDGE ( 'NONE', *, *, #6, .F. ) ;
#201 = AXIS2_PLACEMENT_3D ( 'NONE', #172, #103, #66 ) ;
#202 = FACE_OUTER_BOUND ( 'NONE', #207, .T. ) ;
#203 = ORIENTED_EDGE ( 'NONE', *, *, #73, .F. ) ;
#204 = CARTESIAN_POINT ( 'NONE',  ( 0.0000000000000000000, 0.0000000000000000000, 0.0000000000000000000 ) ) ;
#205 = AXIS2_PLACEMENT_3D ( 'NONE', #53, #87, #168 ) ;
#206 = LINE ( 'NONE', #1, #124 ) ;
#207 = EDGE_LOOP ( 'NONE', ( #185, #108, #109, #97 ) ) ;
#208 = DIRECTION ( 'NONE',  ( -0.0000000000000000000, 1.018167113036815500E-019, 1.000000000000000000 ) ) ;
#209 = SURFACE_SIDE_STYLE ('',( #130 ) ) ;
#210 = UNCERTAINTY_MEASURE_WITH_UNIT (LENGTH_MEASURE( 1.000000000000000100E-005 ), #175, 'distance_accuracy_value', 'NONE');
#211 = FACE_OUTER_BOUND ( 'NONE', #167, .T. ) ;
#212 = CARTESIAN_POINT ( 'NONE',  ( 0.0000000000000000000, 3.492499999999995700, 2.671840860522976900E-016 ) ) ;
#213 = CIRCLE ( 'NONE', #88, 4.365625000000008500 ) ;
#214 = ORIENTED_EDGE ( 'NONE', *, *, #31, .T. ) ;
ENDSEC;
END-ISO-10303-21;
