ISO-10303-21;
HEADER;
FILE_DESCRIPTION (( 'STEP AP214' ),
    '1' );
FILE_NAME ('03-0360.STEP',
    '2020-07-23T07:10:20',
    ( '' ),
    ( '' ),
    'SwSTEP 2.0',
    'SolidWorks 2014',
    '' );
FILE_SCHEMA (( 'AUTOMOTIVE_DESIGN' ));
ENDSEC;

DATA;
#1 = VERTEX_POINT ( 'NONE', #19 ) ;
#2 = EDGE_CURVE ( 'NONE', #176, #1, #118, .T. ) ;
#3 = EDGE_LOOP ( 'NONE', ( #59, #186, #171, #88 ) ) ;
#4 = DIRECTION ( 'NONE',  ( -0.0000000000000000000, -3.543762727240812000E-021, 1.000000000000000000 ) ) ;
#5 = VECTOR ( 'NONE', #199, 1000.000000000000000 ) ;
#6 = AXIS2_PLACEMENT_3D ( 'NONE', #177, #10, #155 ) ;
#7 = DIRECTION ( 'NONE',  ( 0.0000000000000000000, 1.000000000000000000, 3.543762727241688400E-021 ) ) ;
#8 = CARTESIAN_POINT ( 'NONE',  ( 0.0000000000000000000, -1.033398705910184000E-036, 2.916105804619691400E-016 ) ) ;
#9 = CARTESIAN_POINT ( 'NONE',  ( 0.0000000000000000000, -4.762500000000016200, -127.0000000000000000 ) ) ;
#10 = DIRECTION ( 'NONE',  ( 0.0000000000000000000, 3.543762727240812000E-021, -1.000000000000000000 ) ) ;
#11 = DIRECTION ( 'NONE',  ( 0.0000000000000000000, -1.000000000000000000, 0.0000000000000000000 ) ) ;
#12 = EDGE_LOOP ( 'NONE', ( #116, #84, #96, #138 ) ) ;
#13 = AXIS2_PLACEMENT_3D ( 'NONE', #205, #161, #68 ) ;
#14 = APPLICATION_CONTEXT ( 'automotive_design' ) ;
#15 = CYLINDRICAL_SURFACE ( 'NONE', #69, 4.762500000000007300 ) ;
#16 = AXIS2_PLACEMENT_3D ( 'NONE', #206, #154, #49 ) ;
#17 = DIRECTION ( 'NONE',  ( 0.0000000000000000000, -1.000000000000000000, 0.0000000000000000000 ) ) ;
#18 = EDGE_CURVE ( 'NONE', #169, #181, #173, .T. ) ;
#19 = CARTESIAN_POINT ( 'NONE',  ( 5.249142342845352200E-016, -3.810000000000007600, 2.915970787259783800E-016 ) ) ;
#20 = LINE ( 'NONE', #26, #5 ) ;
#21 =( GEOMETRIC_REPRESENTATION_CONTEXT ( 3 ) GLOBAL_UNCERTAINTY_ASSIGNED_CONTEXT ( ( #193 ) ) GLOBAL_UNIT_ASSIGNED_CONTEXT ( ( #137, #52, #210 ) ) REPRESENTATION_CONTEXT ( 'NONE', 'WORKASPACE' ) );
#22 = SURFACE_STYLE_USAGE ( .BOTH. , #87 ) ;
#23 = CARTESIAN_POINT ( 'NONE',  ( 0.0000000000000000000, 0.0000000000000000000, 0.0000000000000000000 ) ) ;
#24 = FACE_OUTER_BOUND ( 'NONE', #170, .T. ) ;
#25 = DIRECTION ( 'NONE',  ( -0.0000000000000000000, -3.543762727240812000E-021, 1.000000000000000000 ) ) ;
#26 = CARTESIAN_POINT ( 'NONE',  ( 4.665904304751425400E-016, -3.810000000000007600, 2.915970787259783800E-016 ) ) ;
#27 = DIRECTION ( 'NONE',  ( 0.0000000000000000000, 1.000000000000000000, 0.0000000000000000000 ) ) ;
#28 = APPLICATION_CONTEXT ( 'automotive_design' ) ;
#29 = FACE_OUTER_BOUND ( 'NONE', #139, .T. ) ;
#30 = EDGE_CURVE ( 'NONE', #207, #54, #121, .T. ) ;
#31 = APPLICATION_PROTOCOL_DEFINITION ( 'draft international standard', 'automotive_design', 1998, #28 ) ;
#32 = DIRECTION ( 'NONE',  ( 0.0000000000000000000, 0.0000000000000000000, 1.000000000000000000 ) ) ;
#33 = FACE_OUTER_BOUND ( 'NONE', #12, .T. ) ;
#34 = CIRCLE ( 'NONE', #6, 4.762500000000007300 ) ;
#35 = EDGE_CURVE ( 'NONE', #207, #181, #132, .T. ) ;
#36 = PRESENTATION_STYLE_ASSIGNMENT (( #22 ) ) ;
#37 = ADVANCED_BREP_SHAPE_REPRESENTATION ( '03-0360', ( #147, #214 ), #21 ) ;
#38 = MECHANICAL_DESIGN_GEOMETRIC_PRESENTATION_REPRESENTATION (  '', ( #167 ), #197 ) ;
#39 = ORIENTED_EDGE ( 'NONE', *, *, #18, .T. ) ;
#40 = ORIENTED_EDGE ( 'NONE', *, *, #172, .F. ) ;
#41 = CARTESIAN_POINT ( 'NONE',  ( 0.0000000000000000000, -1.033398705910183800E-036, 2.916105804619691400E-016 ) ) ;
#42 = ADVANCED_FACE ( 'NONE', ( #29 ), #55, .T. ) ;
#43 = EDGE_CURVE ( 'NONE', #181, #149, #195, .T. ) ;
#44 = DIRECTION ( 'NONE',  ( 0.0000000000000000000, 0.7071067811865459100, -0.7071067811865491300 ) ) ;
#45 = ORIENTED_EDGE ( 'NONE', *, *, #65, .F. ) ;
#46 = CARTESIAN_POINT ( 'NONE',  ( 5.832380380939288800E-016, 4.762500000000016200, -127.0000000000000000 ) ) ;
#47 = DIRECTION ( 'NONE',  ( -0.0000000000000000000, -3.543762727240812000E-021, 1.000000000000000000 ) ) ;
#48 = PRESENTATION_LAYER_ASSIGNMENT (  '', '', ( #167 ) ) ;
#49 = DIRECTION ( 'NONE',  ( 0.0000000000000000000, 1.000000000000000000, 3.543762727241688400E-021 ) ) ;
#50 = ORIENTED_EDGE ( 'NONE', *, *, #30, .T. ) ;
#51 = EDGE_CURVE ( 'NONE', #1, #176, #158, .T. ) ;
#52 =( NAMED_UNIT ( * ) PLANE_ANGLE_UNIT ( ) SI_UNIT ( $, .RADIAN. ) );
#53 = AXIS2_PLACEMENT_3D ( 'NONE', #8, #123, #187 ) ;
#54 = VERTEX_POINT ( 'NONE', #136 ) ;
#55 = CONICAL_SURFACE ( 'NONE', #57, 2414.213562373070500, 1.178097245096168900 ) ;
#56 = ADVANCED_FACE ( 'NONE', ( #81 ), #128, .T. ) ;
#57 = AXIS2_PLACEMENT_3D ( 'NONE', #134, #107, #17 ) ;
#58 = PRESENTATION_STYLE_ASSIGNMENT (( #191 ) ) ;
#59 = ORIENTED_EDGE ( 'NONE', *, *, #30, .F. ) ;
#60 = COLOUR_RGB ( '',0.7921568627450980000, 0.8196078431372548800, 0.9333333333333333500 ) ;
#61 = DIRECTION ( 'NONE',  ( -0.0000000000000000000, -3.543762727240812000E-021, 1.000000000000000000 ) ) ;
#62 = ORIENTED_EDGE ( 'NONE', *, *, #156, .T. ) ;
#63 = CIRCLE ( 'NONE', #180, 4.762500000000007300 ) ;
#64 = PRESENTATION_LAYER_ASSIGNMENT (  '', '', ( #103 ) ) ;
#65 = EDGE_CURVE ( 'NONE', #181, #207, #157, .T. ) ;
#66 = CARTESIAN_POINT ( 'NONE',  ( 0.0000000000000000000, -4.762500000000007300, -1.687716998848439200E-020 ) ) ;
#67 = ADVANCED_FACE ( 'NONE', ( #24 ), #178, .F. ) ;
#68 = DIRECTION ( 'NONE',  ( 0.0000000000000000000, 1.000000000000000000, 3.543762727240812000E-021 ) ) ;
#69 = AXIS2_PLACEMENT_3D ( 'NONE', #164, #151, #110 ) ;
#70 = CARTESIAN_POINT ( 'NONE',  ( 0.0000000000000000000, 3.810000000000007600, 2.916240821979599500E-016 ) ) ;
#71 = CONICAL_SURFACE ( 'NONE', #16, 3.810000000000007600, 0.7853981633974460600 ) ;
#72 =( NAMED_UNIT ( * ) PLANE_ANGLE_UNIT ( ) SI_UNIT ( $, .RADIAN. ) );
#73 = AXIS2_PLACEMENT_3D ( 'NONE', #125, #185, #111 ) ;
#74 = SURFACE_STYLE_FILL_AREA ( #141 ) ;
#75 = MECHANICAL_DESIGN_GEOMETRIC_PRESENTATION_REPRESENTATION (  '', ( #103 ), #184 ) ;
#76 = EDGE_CURVE ( 'NONE', #1, #149, #20, .T. ) ;
#77 = ADVANCED_FACE ( 'NONE', ( #92 ), #135, .T. ) ;
#78 = VECTOR ( 'NONE', #174, 1000.000000000000000 ) ;
#79 = ADVANCED_FACE ( 'NONE', ( #200 ), #212, .T. ) ;
#80 = PRODUCT_DEFINITION ( 'UNKNOWN', '', #133, #117 ) ;
#81 = FACE_OUTER_BOUND ( 'NONE', #104, .T. ) ;
#82 = DIRECTION ( 'NONE',  ( -0.0000000000000000000, -3.543762727240812000E-021, 1.000000000000000000 ) ) ;
#83 = CARTESIAN_POINT ( 'NONE',  ( 5.832380380939278000E-016, 4.762500000000007300, 1.687716998848439200E-020 ) ) ;
#84 = ORIENTED_EDGE ( 'NONE', *, *, #76, .T. ) ;
#85 = AXIS2_PLACEMENT_3D ( 'NONE', #108, #4, #89 ) ;
#86 = CARTESIAN_POINT ( 'NONE',  ( 0.0000000000000000000, -4.762500000000007300, -0.9525000000000033400 ) ) ;
#87 = SURFACE_SIDE_STYLE ('',( #74 ) ) ;
#88 = ORIENTED_EDGE ( 'NONE', *, *, #189, .T. ) ;
#89 = DIRECTION ( 'NONE',  ( 0.0000000000000000000, -1.000000000000000000, 0.0000000000000000000 ) ) ;
#90 = CARTESIAN_POINT ( 'NONE',  ( 0.0000000000000000000, 4.570486190632896500E-019, -128.9726920908019000 ) ) ;
#91 = DIRECTION ( 'NONE',  ( 0.0000000000000000000, -1.000000000000000000, -3.543762727240812000E-021 ) ) ;
#92 = FACE_OUTER_BOUND ( 'NONE', #3, .T. ) ;
#93 = AXIS2_PLACEMENT_3D ( 'NONE', #41, #122, #7 ) ;
#94 = ORIENTED_EDGE ( 'NONE', *, *, #172, .T. ) ;
#95 = ORIENTED_EDGE ( 'NONE', *, *, #183, .T. ) ;
#96 = ORIENTED_EDGE ( 'NONE', *, *, #183, .F. ) ;
#97 = ORIENTED_EDGE ( 'NONE', *, *, #2, .F. ) ;
#98 = EDGE_LOOP ( 'NONE', ( #202, #50, #95, #109 ) ) ;
#99 = ADVANCED_FACE ( 'NONE', ( #33 ), #71, .T. ) ;
#100 = ADVANCED_FACE ( 'NONE', ( #179 ), #15, .T. ) ;
#101 = AXIS2_PLACEMENT_3D ( 'NONE', #126, #25, #11 ) ;
#102 = DIRECTION ( 'NONE',  ( 0.0000000000000000000, -1.000000000000000000, 0.0000000000000000000 ) ) ;
#103 = STYLED_ITEM ( 'NONE', ( #58 ), #37 ) ;
#104 = EDGE_LOOP ( 'NONE', ( #40, #39, #146 ) ) ;
#105 = PRODUCT_DEFINITION_SHAPE ( 'NONE', 'NONE',  #80 ) ;
#106 = AXIS2_PLACEMENT_3D ( 'NONE', #119, #82, #102 ) ;
#107 = DIRECTION ( 'NONE',  ( -0.0000000000000000000, -3.543762727240812000E-021, 1.000000000000000000 ) ) ;
#108 = CARTESIAN_POINT ( 'NONE',  ( 0.0000000000000000000, -3.086714108177522500E-018, 871.0273079091981600 ) ) ;
#109 = ORIENTED_EDGE ( 'NONE', *, *, #43, .F. ) ;
#110 = DIRECTION ( 'NONE',  ( 0.0000000000000000000, -1.000000000000000000, -3.543762727240812000E-021 ) ) ;
#111 = DIRECTION ( 'NONE',  ( 0.0000000000000000000, 1.000000000000000000, 3.543762727241688400E-021 ) ) ;
#112 = ORIENTED_EDGE ( 'NONE', *, *, #76, .F. ) ;
#113 =( NAMED_UNIT ( * ) PLANE_ANGLE_UNIT ( ) SI_UNIT ( $, .RADIAN. ) );
#114 = SURFACE_STYLE_FILL_AREA ( #144 ) ;
#115 = UNCERTAINTY_MEASURE_WITH_UNIT (LENGTH_MEASURE( 1.000000000000000100E-005 ), #175, 'distance_accuracy_value', 'NONE');
#116 = ORIENTED_EDGE ( 'NONE', *, *, #51, .F. ) ;
#117 = PRODUCT_DEFINITION_CONTEXT ( 'detailed design', #28, 'design' ) ;
#118 = CIRCLE ( 'NONE', #93, 3.810000000000007600 ) ;
#119 = CARTESIAN_POINT ( 'NONE',  ( 0.0000000000000000000, 4.500578663595831800E-019, -127.0000000000000000 ) ) ;
#120 = CARTESIAN_POINT ( 'NONE',  ( 0.0000000000000000000, 4.570486190632896500E-019, -128.9726920908019000 ) ) ;
#121 = LINE ( 'NONE', #83, #143 ) ;
#122 = DIRECTION ( 'NONE',  ( -0.0000000000000000000, -3.543762727240812000E-021, 1.000000000000000000 ) ) ;
#123 = DIRECTION ( 'NONE',  ( 0.0000000000000000000, 3.543762727240812000E-021, -1.000000000000000000 ) ) ;
#124 = DIRECTION ( 'NONE',  ( 0.0000000000000000000, 3.543762727240812000E-021, -1.000000000000000000 ) ) ;
#125 = CARTESIAN_POINT ( 'NONE',  ( 0.0000000000000000000, -1.033398705910183800E-036, 2.916105804619691400E-016 ) ) ;
#126 = CARTESIAN_POINT ( 'NONE',  ( 0.0000000000000000000, 4.500578663595831800E-019, -127.0000000000000000 ) ) ;
#127 =( NAMED_UNIT ( * ) SI_UNIT ( $, .STERADIAN. ) SOLID_ANGLE_UNIT ( ) );
#128 = CONICAL_SURFACE ( 'NONE', #85, 2414.213562373070500, 1.178097245096168900 ) ;
#129 = APPLICATION_PROTOCOL_DEFINITION ( 'draft international standard', 'automotive_design', 1998, #14 ) ;
#130 =( LENGTH_UNIT ( ) NAMED_UNIT ( * ) SI_UNIT ( .MILLI., .METRE. ) );
#131 = EDGE_LOOP ( 'NONE', ( #112, #97, #62, #148 ) ) ;
#132 = CIRCLE ( 'NONE', #106, 4.762500000000015300 ) ;
#133 = PRODUCT_DEFINITION_FORMATION_WITH_SPECIFIED_SOURCE ( 'ANY', '', #203, .NOT_KNOWN. ) ;
#134 = CARTESIAN_POINT ( 'NONE',  ( 0.0000000000000000000, -3.086714108177522500E-018, 871.0273079091981600 ) ) ;
#135 = CYLINDRICAL_SURFACE ( 'NONE', #208, 4.762500000000007300 ) ;
#136 = CARTESIAN_POINT ( 'NONE',  ( 5.832380380939278000E-016, 4.762500000000007300, -0.9525000000000033400 ) ) ;
#137 =( LENGTH_UNIT ( ) NAMED_UNIT ( * ) SI_UNIT ( .MILLI., .METRE. ) );
#138 = ORIENTED_EDGE ( 'NONE', *, *, #156, .F. ) ;
#139 = EDGE_LOOP ( 'NONE', ( #166, #94, #45 ) ) ;
#140 = FILL_AREA_STYLE_COLOUR ( '', #60 ) ;
#141 = FILL_AREA_STYLE ('',( #204 ) ) ;
#142 = CARTESIAN_POINT ( 'NONE',  ( 0.0000000000000000000, 3.375433997696885500E-021, -0.9525000000000033400 ) ) ;
#143 = VECTOR ( 'NONE', #61, 1000.000000000000000 ) ;
#144 = FILL_AREA_STYLE ('',( #140 ) ) ;
#145 = SURFACE_SIDE_STYLE ('',( #114 ) ) ;
#146 = ORIENTED_EDGE ( 'NONE', *, *, #35, .F. ) ;
#147 = MANIFOLD_SOLID_BREP ( '¸ðµû±â1', #213 ) ;
#148 = ORIENTED_EDGE ( 'NONE', *, *, #189, .F. ) ;
#149 = VERTEX_POINT ( 'NONE', #86 ) ;
#150 = DIRECTION ( 'NONE',  ( 0.0000000000000000000, -0.9238795325112853000, 0.3826834323650930600 ) ) ;
#151 = DIRECTION ( 'NONE',  ( -0.0000000000000000000, -3.543762727240812000E-021, 1.000000000000000000 ) ) ;
#152 = CARTESIAN_POINT ( 'NONE',  ( 0.0000000000000000000, 0.0000000000000000000, 0.0000000000000000000 ) ) ;
#153 = LINE ( 'NONE', #70, #159 ) ;
#154 = DIRECTION ( 'NONE',  ( 0.0000000000000000000, 3.543762727240812000E-021, -1.000000000000000000 ) ) ;
#155 = DIRECTION ( 'NONE',  ( 0.0000000000000000000, 1.000000000000000000, 0.0000000000000000000 ) ) ;
#156 = EDGE_CURVE ( 'NONE', #176, #54, #153, .T. ) ;
#157 = CIRCLE ( 'NONE', #101, 4.762500000000015300 ) ;
#158 = CIRCLE ( 'NONE', #73, 3.810000000000007600 ) ;
#159 = VECTOR ( 'NONE', #44, 1000.000000000000000 ) ;
#160 = CARTESIAN_POINT ( 'NONE',  ( 0.0000000000000000000, 3.810000000000007600, 2.916240821979599500E-016 ) ) ;
#161 = DIRECTION ( 'NONE',  ( 0.0000000000000000000, 3.543762727240812000E-021, -1.000000000000000000 ) ) ;
#162 = ORIENTED_EDGE ( 'NONE', *, *, #51, .T. ) ;
#163 = UNCERTAINTY_MEASURE_WITH_UNIT (LENGTH_MEASURE( 1.000000000000000100E-005 ), #130, 'distance_accuracy_value', 'NONE');
#164 = CARTESIAN_POINT ( 'NONE',  ( 0.0000000000000000000, 0.0000000000000000000, 0.0000000000000000000 ) ) ;
#165 = SHAPE_DEFINITION_REPRESENTATION ( #105, #37 ) ;
#166 = ORIENTED_EDGE ( 'NONE', *, *, #18, .F. ) ;
#167 = STYLED_ITEM ( 'NONE', ( #36 ), #147 ) ;
#168 = VECTOR ( 'NONE', #188, 1000.000000000000100 ) ;
#169 = VERTEX_POINT ( 'NONE', #90 ) ;
#170 = EDGE_LOOP ( 'NONE', ( #196, #162 ) ) ;
#171 = ORIENTED_EDGE ( 'NONE', *, *, #43, .T. ) ;
#172 = EDGE_CURVE ( 'NONE', #169, #207, #201, .T. ) ;
#173 = LINE ( 'NONE', #120, #190 ) ;
#174 = DIRECTION ( 'NONE',  ( -0.0000000000000000000, -3.543762727240812000E-021, 1.000000000000000000 ) ) ;
#175 =( LENGTH_UNIT ( ) NAMED_UNIT ( * ) SI_UNIT ( .MILLI., .METRE. ) );
#176 = VERTEX_POINT ( 'NONE', #160 ) ;
#177 = CARTESIAN_POINT ( 'NONE',  ( 0.0000000000000000000, 3.375433997696885500E-021, -0.9525000000000033400 ) ) ;
#178 = PLANE ( 'NONE',  #13 ) ;
#179 = FACE_OUTER_BOUND ( 'NONE', #98, .T. ) ;
#180 = AXIS2_PLACEMENT_3D ( 'NONE', #142, #124, #27 ) ;
#181 = VERTEX_POINT ( 'NONE', #9 ) ;
#182 = PRODUCT_CONTEXT ( 'NONE', #14, 'mechanical' ) ;
#183 = EDGE_CURVE ( 'NONE', #54, #149, #63, .T. ) ;
#184 =( GEOMETRIC_REPRESENTATION_CONTEXT ( 3 ) GLOBAL_UNCERTAINTY_ASSIGNED_CONTEXT ( ( #163 ) ) GLOBAL_UNIT_ASSIGNED_CONTEXT ( ( #130, #72, #211 ) ) REPRESENTATION_CONTEXT ( 'NONE', 'WORKASPACE' ) );
#185 = DIRECTION ( 'NONE',  ( -0.0000000000000000000, -3.543762727240812000E-021, 1.000000000000000000 ) ) ;
#186 = ORIENTED_EDGE ( 'NONE', *, *, #35, .T. ) ;
#187 = DIRECTION ( 'NONE',  ( 0.0000000000000000000, 1.000000000000000000, 3.543762727241688400E-021 ) ) ;
#188 = DIRECTION ( 'NONE',  ( 1.131426112287698500E-016, 0.9238795325112853000, 0.3826834323650930600 ) ) ;
#189 = EDGE_CURVE ( 'NONE', #149, #54, #34, .T. ) ;
#190 = VECTOR ( 'NONE', #150, 1000.000000000000100 ) ;
#191 = SURFACE_STYLE_USAGE ( .BOTH. , #145 ) ;
#192 = COLOUR_RGB ( '',0.7921568627450980000, 0.8196078431372548800, 0.9333333333333333500 ) ;
#193 = UNCERTAINTY_MEASURE_WITH_UNIT (LENGTH_MEASURE( 1.000000000000000100E-005 ), #137, 'distance_accuracy_value', 'NONE');
#194 = PRODUCT_RELATED_PRODUCT_CATEGORY ( 'part', '', ( #203 ) ) ;
#195 = LINE ( 'NONE', #66, #78 ) ;
#196 = ORIENTED_EDGE ( 'NONE', *, *, #2, .T. ) ;
#197 =( GEOMETRIC_REPRESENTATION_CONTEXT ( 3 ) GLOBAL_UNCERTAINTY_ASSIGNED_CONTEXT ( ( #115 ) ) GLOBAL_UNIT_ASSIGNED_CONTEXT ( ( #175, #113, #127 ) ) REPRESENTATION_CONTEXT ( 'NONE', 'WORKASPACE' ) );
#198 = CARTESIAN_POINT ( 'NONE',  ( 0.0000000000000000000, 4.570486190632896500E-019, -128.9726920908019000 ) ) ;
#199 = DIRECTION ( 'NONE',  ( 8.659560562354911900E-017, -0.7071067811865459100, -0.7071067811865491300 ) ) ;
#200 = FACE_OUTER_BOUND ( 'NONE', #131, .T. ) ;
#201 = LINE ( 'NONE', #198, #168 ) ;
#202 = ORIENTED_EDGE ( 'NONE', *, *, #65, .T. ) ;
#203 = PRODUCT ( '03-0360', '03-0360', '', ( #182 ) ) ;
#204 = FILL_AREA_STYLE_COLOUR ( '', #192 ) ;
#205 = CARTESIAN_POINT ( 'NONE',  ( 0.0000000000000000000, 4.762499999999999300, 2.916274576319576300E-016 ) ) ;
#206 = CARTESIAN_POINT ( 'NONE',  ( 0.0000000000000000000, -1.033398705910184000E-036, 2.916105804619691400E-016 ) ) ;
#207 = VERTEX_POINT ( 'NONE', #46 ) ;
#208 = AXIS2_PLACEMENT_3D ( 'NONE', #23, #47, #91 ) ;
#209 = DIRECTION ( 'NONE',  ( 1.000000000000000000, 0.0000000000000000000, 0.0000000000000000000 ) ) ;
#210 =( NAMED_UNIT ( * ) SI_UNIT ( $, .STERADIAN. ) SOLID_ANGLE_UNIT ( ) );
#211 =( NAMED_UNIT ( * ) SI_UNIT ( $, .STERADIAN. ) SOLID_ANGLE_UNIT ( ) );
#212 = CONICAL_SURFACE ( 'NONE', #53, 3.810000000000007600, 0.7853981633974460600 ) ;
#213 = CLOSED_SHELL ( 'NONE', ( #99, #100, #42, #67, #56, #77, #79 ) ) ;
#214 = AXIS2_PLACEMENT_3D ( 'NONE', #152, #32, #209 ) ;
ENDSEC;
END-ISO-10303-21;
