ISO-10303-21;
HEADER;
FILE_DESCRIPTION (( 'STEP AP214' ),
    '1' );
FILE_NAME ('03-0361.STEP',
    '2020-07-23T07:11:01',
    ( '' ),
    ( '' ),
    'SwSTEP 2.0',
    'SolidWorks 2014',
    '' );
FILE_SCHEMA (( 'AUTOMOTIVE_DESIGN' ));
ENDSEC;

DATA;
#1 = EDGE_LOOP ( 'NONE', ( #119, #179, #165, #25 ) ) ;
#2 = EDGE_CURVE ( 'NONE', #122, #193, #152, .T. ) ;
#3 = CIRCLE ( 'NONE', #126, 4.960937500000007100 ) ;
#4 = ADVANCED_FACE ( 'NONE', ( #202 ), #199, .T. ) ;
#5 = AXIS2_PLACEMENT_3D ( 'NONE', #207, #42, #45 ) ;
#6 = UNCERTAINTY_MEASURE_WITH_UNIT (LENGTH_MEASURE( 1.000000000000000100E-005 ), #26, 'distance_accuracy_value', 'NONE');
#7 = DIRECTION ( 'NONE',  ( -0.0000000000000000000, 6.411013823997873800E-020, 1.000000000000000000 ) ) ;
#8 = LINE ( 'NONE', #190, #96 ) ;
#9 = DIRECTION ( 'NONE',  ( 0.0000000000000000000, -1.000000000000000000, 6.411013823997872600E-020 ) ) ;
#10 = DIRECTION ( 'NONE',  ( 0.0000000000000000000, 1.000000000000000000, 0.0000000000000000000 ) ) ;
#11 = DIRECTION ( 'NONE',  ( 0.0000000000000000000, -1.000000000000000000, 6.411013823997872600E-020 ) ) ;
#12 = DIRECTION ( 'NONE',  ( 0.0000000000000000000, -1.000000000000000000, 0.0000000000000000000 ) ) ;
#13 =( LENGTH_UNIT ( ) NAMED_UNIT ( * ) SI_UNIT ( .MILLI., .METRE. ) );
#14 = EDGE_LOOP ( 'NONE', ( #72, #151, #159, #185 ) ) ;
#15 = CONICAL_SURFACE ( 'NONE', #5, 3.968750000000007100, 0.7853981633974466100 ) ;
#16 =( GEOMETRIC_REPRESENTATION_CONTEXT ( 3 ) GLOBAL_UNCERTAINTY_ASSIGNED_CONTEXT ( ( #115 ) ) GLOBAL_UNIT_ASSIGNED_CONTEXT ( ( #13, #49, #175 ) ) REPRESENTATION_CONTEXT ( 'NONE', 'WORKASPACE' ) );
#17 = AXIS2_PLACEMENT_3D ( 'NONE', #69, #131, #12 ) ;
#18 = VERTEX_POINT ( 'NONE', #65 ) ;
#19 = ORIENTED_EDGE ( 'NONE', *, *, #170, .F. ) ;
#20 = EDGE_CURVE ( 'NONE', #52, #171, #8, .T. ) ;
#21 = ORIENTED_EDGE ( 'NONE', *, *, #88, .T. ) ;
#22 = CARTESIAN_POINT ( 'NONE',  ( 0.0000000000000000000, -8.477276373145712500E-018, -132.2298875945852800 ) ) ;
#23 = DIRECTION ( 'NONE',  ( -0.0000000000000000000, 6.411013823997873800E-020, 1.000000000000000000 ) ) ;
#24 = CARTESIAN_POINT ( 'NONE',  ( 0.0000000000000000000, 0.0000000000000000000, 0.0000000000000000000 ) ) ;
#25 = ORIENTED_EDGE ( 'NONE', *, *, #33, .F. ) ;
#26 =( LENGTH_UNIT ( ) NAMED_UNIT ( * ) SI_UNIT ( .MILLI., .METRE. ) );
#27 = ORIENTED_EDGE ( 'NONE', *, *, #33, .T. ) ;
#28 = APPLICATION_CONTEXT ( 'automotive_design' ) ;
#29 = EDGE_LOOP ( 'NONE', ( #125, #77, #19 ) ) ;
#30 = PRESENTATION_LAYER_ASSIGNMENT (  '', '', ( #138 ) ) ;
#31 = CARTESIAN_POINT ( 'NONE',  ( 0.0000000000000000000, 3.968750000000007100, 3.036743975905761300E-016 ) ) ;
#32 = VECTOR ( 'NONE', #95, 1000.000000000000000 ) ;
#33 = EDGE_CURVE ( 'NONE', #18, #171, #84, .T. ) ;
#34 = PRODUCT_DEFINITION_FORMATION_WITH_SPECIFIED_SOURCE ( 'ANY', '', #167, .NOT_KNOWN. ) ;
#35 = ADVANCED_FACE ( 'NONE', ( #124 ), #15, .T. ) ;
#36 = LINE ( 'NONE', #31, #68 ) ;
#37 = ORIENTED_EDGE ( 'NONE', *, *, #83, .F. ) ;
#38 = APPLICATION_CONTEXT ( 'automotive_design' ) ;
#39 = LINE ( 'NONE', #174, #32 ) ;
#40 =( LENGTH_UNIT ( ) NAMED_UNIT ( * ) SI_UNIT ( .MILLI., .METRE. ) );
#41 = EDGE_CURVE ( 'NONE', #189, #18, #39, .T. ) ;
#42 = DIRECTION ( 'NONE',  ( 0.0000000000000000000, -6.411013823997875000E-020, -1.000000000000000000 ) ) ;
#43 = DIRECTION ( 'NONE',  ( 0.0000000000000000000, 1.000000000000000000, 0.0000000000000000000 ) ) ;
#44 = VECTOR ( 'NONE', #157, 1000.000000000000100 ) ;
#45 = DIRECTION ( 'NONE',  ( 0.0000000000000000000, 1.000000000000000000, -6.411013823998053200E-020 ) ) ;
#46 = CARTESIAN_POINT ( 'NONE',  ( 0.0000000000000000000, -6.360927778497911400E-020, -0.9921875000000032200 ) ) ;
#47 = DIRECTION ( 'NONE',  ( 0.0000000000000000000, -6.411013823997875000E-020, -1.000000000000000000 ) ) ;
#48 = DIRECTION ( 'NONE',  ( 0.0000000000000000000, -1.000000000000000000, 0.0000000000000000000 ) ) ;
#49 =( NAMED_UNIT ( * ) PLANE_ANGLE_UNIT ( ) SI_UNIT ( $, .RADIAN. ) );
#50 = FILL_AREA_STYLE ('',( #194 ) ) ;
#51 = ORIENTED_EDGE ( 'NONE', *, *, #120, .T. ) ;
#52 = VERTEX_POINT ( 'NONE', #79 ) ;
#53 = AXIS2_PLACEMENT_3D ( 'NONE', #154, #111, #99 ) ;
#54 = PRODUCT_DEFINITION_SHAPE ( 'NONE', 'NONE',  #180 ) ;
#55 = UNCERTAINTY_MEASURE_WITH_UNIT (LENGTH_MEASURE( 1.000000000000000100E-005 ), #40, 'distance_accuracy_value', 'NONE');
#56 = SHAPE_DEFINITION_REPRESENTATION ( #54, #150 ) ;
#57 = MECHANICAL_DESIGN_GEOMETRIC_PRESENTATION_REPRESENTATION (  '', ( #138 ), #16 ) ;
#58 = PRESENTATION_STYLE_ASSIGNMENT (( #118 ) ) ;
#59 = ADVANCED_FACE ( 'NONE', ( #181 ), #147, .T. ) ;
#60 = CLOSED_SHELL ( 'NONE', ( #149, #4, #105, #146, #183, #59, #35 ) ) ;
#61 = CARTESIAN_POINT ( 'NONE',  ( 0.0000000000000000000, -8.345537245389231200E-018, -130.1749999999999800 ) ) ;
#62 = ORIENTED_EDGE ( 'NONE', *, *, #20, .F. ) ;
#63 = AXIS2_PLACEMENT_3D ( 'NONE', #112, #7, #209 ) ;
#64 = CARTESIAN_POINT ( 'NONE',  ( 0.0000000000000000000, 0.0000000000000000000, 0.0000000000000000000 ) ) ;
#65 = CARTESIAN_POINT ( 'NONE',  ( 0.0000000000000000000, -4.960937500000007100, -0.9921875000000032200 ) ) ;
#66 = CARTESIAN_POINT ( 'NONE',  ( 0.0000000000000000000, -8.477276373145712500E-018, -132.2298875945852800 ) ) ;
#67 = FILL_AREA_STYLE_COLOUR ( '', #211 ) ;
#68 = VECTOR ( 'NONE', #162, 1000.000000000000000 ) ;
#69 = CARTESIAN_POINT ( 'NONE',  ( 0.0000000000000000000, -8.345537245389231200E-018, -130.1749999999999800 ) ) ;
#70 = CONICAL_SURFACE ( 'NONE', #63, 2414.213562373070500, 1.178097245096168900 ) ;
#71 = LINE ( 'NONE', #22, #44 ) ;
#72 = ORIENTED_EDGE ( 'NONE', *, *, #88, .F. ) ;
#73 = VECTOR ( 'NONE', #153, 1000.000000000000100 ) ;
#74 =( GEOMETRIC_REPRESENTATION_CONTEXT ( 3 ) GLOBAL_UNCERTAINTY_ASSIGNED_CONTEXT ( ( #6 ) ) GLOBAL_UNIT_ASSIGNED_CONTEXT ( ( #26, #176, #117 ) ) REPRESENTATION_CONTEXT ( 'NONE', 'WORKASPACE' ) );
#75 = ORIENTED_EDGE ( 'NONE', *, *, #120, .F. ) ;
#76 = DIRECTION ( 'NONE',  ( 1.000000000000000000, 0.0000000000000000000, 0.0000000000000000000 ) ) ;
#77 = ORIENTED_EDGE ( 'NONE', *, *, #83, .T. ) ;
#78 = DIRECTION ( 'NONE',  ( -0.0000000000000000000, 6.411013823997873800E-020, 1.000000000000000000 ) ) ;
#79 = CARTESIAN_POINT ( 'NONE',  ( 6.075396230145089600E-016, 4.960937500000014200, -130.1749999999999800 ) ) ;
#80 = ORIENTED_EDGE ( 'NONE', *, *, #103, .T. ) ;
#81 = DIRECTION ( 'NONE',  ( -0.0000000000000000000, 6.411013823997873800E-020, 1.000000000000000000 ) ) ;
#82 = CARTESIAN_POINT ( 'NONE',  ( 6.075396230145081700E-016, 4.960937500000007100, -0.9921875000000032200 ) ) ;
#83 = EDGE_CURVE ( 'NONE', #197, #52, #161, .T. ) ;
#84 = CIRCLE ( 'NONE', #97, 4.960937500000007100 ) ;
#85 = PRESENTATION_LAYER_ASSIGNMENT (  '', '', ( #136 ) ) ;
#86 = LINE ( 'NONE', #133, #139 ) ;
#87 = ORIENTED_EDGE ( 'NONE', *, *, #170, .T. ) ;
#88 = EDGE_CURVE ( 'NONE', #193, #122, #195, .T. ) ;
#89 = FACE_OUTER_BOUND ( 'NONE', #109, .T. ) ;
#90 = SURFACE_STYLE_USAGE ( .BOTH. , #191 ) ;
#91 = EDGE_CURVE ( 'NONE', #197, #189, #71, .T. ) ;
#92 = APPLICATION_PROTOCOL_DEFINITION ( 'draft international standard', 'automotive_design', 1998, #38 ) ;
#93 = CARTESIAN_POINT ( 'NONE',  ( 0.0000000000000000000, 3.968750000000007100, 3.036743975905761300E-016 ) ) ;
#94 = ORIENTED_EDGE ( 'NONE', *, *, #91, .T. ) ;
#95 = DIRECTION ( 'NONE',  ( -0.0000000000000000000, 6.411013823997873800E-020, 1.000000000000000000 ) ) ;
#96 = VECTOR ( 'NONE', #81, 1000.000000000000000 ) ;
#97 = AXIS2_PLACEMENT_3D ( 'NONE', #46, #172, #43 ) ;
#98 = DIRECTION ( 'NONE',  ( -0.0000000000000000000, 6.411013823997873800E-020, 1.000000000000000000 ) ) ;
#99 = DIRECTION ( 'NONE',  ( 0.0000000000000000000, 1.000000000000000000, -6.411013823998053200E-020 ) ) ;
#100 = CARTESIAN_POINT ( 'NONE',  ( 0.0000000000000000000, 5.563286186683302800E-017, 867.7701124054146900 ) ) ;
#101 = CARTESIAN_POINT ( 'NONE',  ( 0.0000000000000000000, 0.0000000000000000000, 0.0000000000000000000 ) ) ;
#102 = DIRECTION ( 'NONE',  ( 8.659560562354918100E-017, -0.7071067811865463500, -0.7071067811865487900 ) ) ;
#103 = EDGE_CURVE ( 'NONE', #171, #18, #3, .T. ) ;
#104 = ORIENTED_EDGE ( 'NONE', *, *, #41, .T. ) ;
#105 = ADVANCED_FACE ( 'NONE', ( #201 ), #70, .T. ) ;
#106 =( GEOMETRIC_REPRESENTATION_CONTEXT ( 3 ) GLOBAL_UNCERTAINTY_ASSIGNED_CONTEXT ( ( #55 ) ) GLOBAL_UNIT_ASSIGNED_CONTEXT ( ( #40, #182, #108 ) ) REPRESENTATION_CONTEXT ( 'NONE', 'WORKASPACE' ) );
#107 = MECHANICAL_DESIGN_GEOMETRIC_PRESENTATION_REPRESENTATION (  '', ( #136 ), #106 ) ;
#108 =( NAMED_UNIT ( * ) SI_UNIT ( $, .STERADIAN. ) SOLID_ANGLE_UNIT ( ) );
#109 = EDGE_LOOP ( 'NONE', ( #37, #94, #75 ) ) ;
#110 = AXIS2_PLACEMENT_3D ( 'NONE', #128, #23, #129 ) ;
#111 = DIRECTION ( 'NONE',  ( -0.0000000000000000000, 6.411013823997873800E-020, 1.000000000000000000 ) ) ;
#112 = CARTESIAN_POINT ( 'NONE',  ( 0.0000000000000000000, 5.563286186683302800E-017, 867.7701124054146900 ) ) ;
#113 = DIRECTION ( 'NONE',  ( 0.0000000000000000000, 1.000000000000000000, -6.411013823997873800E-020 ) ) ;
#114 = ORIENTED_EDGE ( 'NONE', *, *, #2, .T. ) ;
#115 = UNCERTAINTY_MEASURE_WITH_UNIT (LENGTH_MEASURE( 1.000000000000000100E-005 ), #13, 'distance_accuracy_value', 'NONE');
#116 = AXIS2_PLACEMENT_3D ( 'NONE', #64, #78, #9 ) ;
#117 =( NAMED_UNIT ( * ) SI_UNIT ( $, .STERADIAN. ) SOLID_ANGLE_UNIT ( ) );
#118 = SURFACE_STYLE_USAGE ( .BOTH. , #192 ) ;
#119 = ORIENTED_EDGE ( 'NONE', *, *, #177, .F. ) ;
#120 = EDGE_CURVE ( 'NONE', #52, #189, #208, .T. ) ;
#121 = FACE_OUTER_BOUND ( 'NONE', #14, .T. ) ;
#122 = VERTEX_POINT ( 'NONE', #93 ) ;
#123 = PRESENTATION_STYLE_ASSIGNMENT (( #90 ) ) ;
#124 = FACE_OUTER_BOUND ( 'NONE', #1, .T. ) ;
#125 = ORIENTED_EDGE ( 'NONE', *, *, #91, .F. ) ;
#126 = AXIS2_PLACEMENT_3D ( 'NONE', #142, #47, #10 ) ;
#127 = DIRECTION ( 'NONE',  ( 0.0000000000000000000, 0.0000000000000000000, 1.000000000000000000 ) ) ;
#128 = CARTESIAN_POINT ( 'NONE',  ( 0.0000000000000000000, 1.948491960784266300E-035, 3.039288347017160700E-016 ) ) ;
#129 = DIRECTION ( 'NONE',  ( 0.0000000000000000000, 1.000000000000000000, -6.411013823998053200E-020 ) ) ;
#130 = DIRECTION ( 'NONE',  ( 0.0000000000000000000, -6.411013823997873800E-020, -1.000000000000000000 ) ) ;
#131 = DIRECTION ( 'NONE',  ( -0.0000000000000000000, 6.411013823997873800E-020, 1.000000000000000000 ) ) ;
#132 = EDGE_LOOP ( 'NONE', ( #87, #214, #80, #137 ) ) ;
#133 = CARTESIAN_POINT ( 'NONE',  ( 4.860316984116067000E-016, -3.968750000000007100, 3.041832718128560000E-016 ) ) ;
#134 = EDGE_LOOP ( 'NONE', ( #114, #21 ) ) ;
#135 = EDGE_LOOP ( 'NONE', ( #62, #51, #104, #27 ) ) ;
#136 = STYLED_ITEM ( 'NONE', ( #123 ), #150 ) ;
#137 = ORIENTED_EDGE ( 'NONE', *, *, #41, .F. ) ;
#138 = STYLED_ITEM ( 'NONE', ( #58 ), #188 ) ;
#139 = VECTOR ( 'NONE', #102, 1000.000000000000000 ) ;
#140 = DIRECTION ( 'NONE',  ( 0.0000000000000000000, -6.411013823997875000E-020, -1.000000000000000000 ) ) ;
#141 = DIRECTION ( 'NONE',  ( 0.0000000000000000000, -1.000000000000000000, 0.0000000000000000000 ) ) ;
#142 = CARTESIAN_POINT ( 'NONE',  ( 0.0000000000000000000, -6.360927778497911400E-020, -0.9921875000000032200 ) ) ;
#143 = DIRECTION ( 'NONE',  ( -0.0000000000000000000, 6.411013823997873800E-020, 1.000000000000000000 ) ) ;
#144 = CARTESIAN_POINT ( 'NONE',  ( 5.467856607130574400E-016, -3.968750000000007100, 3.041832718128560000E-016 ) ) ;
#145 = CARTESIAN_POINT ( 'NONE',  ( 0.0000000000000000000, -4.960937500000014200, -130.1749999999999800 ) ) ;
#146 = ADVANCED_FACE ( 'NONE', ( #203 ), #210, .F. ) ;
#147 = CYLINDRICAL_SURFACE ( 'NONE', #184, 4.960937500000007100 ) ;
#148 = CONICAL_SURFACE ( 'NONE', #205, 3.968750000000007100, 0.7853981633974466100 ) ;
#149 = ADVANCED_FACE ( 'NONE', ( #121 ), #148, .T. ) ;
#150 = ADVANCED_BREP_SHAPE_REPRESENTATION ( '03-0361', ( #188, #158 ), #74 ) ;
#151 = ORIENTED_EDGE ( 'NONE', *, *, #177, .T. ) ;
#152 = CIRCLE ( 'NONE', #110, 3.968750000000007100 ) ;
#153 = DIRECTION ( 'NONE',  ( 1.131426112287698500E-016, 0.9238795325112853000, 0.3826834323650930600 ) ) ;
#154 = CARTESIAN_POINT ( 'NONE',  ( 0.0000000000000000000, 1.948491960784266300E-035, 3.039288347017160700E-016 ) ) ;
#155 = AXIS2_PLACEMENT_3D ( 'NONE', #100, #143, #48 ) ;
#156 = COLOUR_RGB ( '',0.7921568627450980000, 0.8196078431372548800, 0.9333333333333333500 ) ;
#157 = DIRECTION ( 'NONE',  ( 0.0000000000000000000, -0.9238795325112853000, 0.3826834323650930600 ) ) ;
#158 = AXIS2_PLACEMENT_3D ( 'NONE', #101, #127, #76 ) ;
#159 = ORIENTED_EDGE ( 'NONE', *, *, #103, .F. ) ;
#160 = APPLICATION_PROTOCOL_DEFINITION ( 'draft international standard', 'automotive_design', 1998, #28 ) ;
#161 = LINE ( 'NONE', #187, #73 ) ;
#162 = DIRECTION ( 'NONE',  ( 0.0000000000000000000, 0.7071067811865463500, -0.7071067811865487900 ) ) ;
#163 = CONICAL_SURFACE ( 'NONE', #155, 2414.213562373070500, 1.178097245096168900 ) ;
#164 = CIRCLE ( 'NONE', #17, 4.960937500000015100 ) ;
#165 = ORIENTED_EDGE ( 'NONE', *, *, #213, .T. ) ;
#166 = PRODUCT_CONTEXT ( 'NONE', #28, 'mechanical' ) ;
#167 = PRODUCT ( '03-0361', '03-0361', '', ( #166 ) ) ;
#168 = PRODUCT_DEFINITION_CONTEXT ( 'detailed design', #38, 'design' ) ;
#169 = CARTESIAN_POINT ( 'NONE',  ( 0.0000000000000000000, 4.960937500000000000, 3.036107883127911700E-016 ) ) ;
#170 = EDGE_CURVE ( 'NONE', #189, #52, #164, .T. ) ;
#171 = VERTEX_POINT ( 'NONE', #82 ) ;
#172 = DIRECTION ( 'NONE',  ( 0.0000000000000000000, -6.411013823997875000E-020, -1.000000000000000000 ) ) ;
#173 = DIRECTION ( 'NONE',  ( 0.0000000000000000000, 1.000000000000000000, -6.411013823998053200E-020 ) ) ;
#174 = CARTESIAN_POINT ( 'NONE',  ( 0.0000000000000000000, -4.960937500000007100, 3.180463889248949400E-019 ) ) ;
#175 =( NAMED_UNIT ( * ) SI_UNIT ( $, .STERADIAN. ) SOLID_ANGLE_UNIT ( ) );
#176 =( NAMED_UNIT ( * ) PLANE_ANGLE_UNIT ( ) SI_UNIT ( $, .RADIAN. ) );
#177 = EDGE_CURVE ( 'NONE', #193, #18, #86, .T. ) ;
#178 = FILL_AREA_STYLE ('',( #67 ) ) ;
#179 = ORIENTED_EDGE ( 'NONE', *, *, #2, .F. ) ;
#180 = PRODUCT_DEFINITION ( 'UNKNOWN', '', #34, #168 ) ;
#181 = FACE_OUTER_BOUND ( 'NONE', #135, .T. ) ;
#182 =( NAMED_UNIT ( * ) PLANE_ANGLE_UNIT ( ) SI_UNIT ( $, .RADIAN. ) );
#183 = ADVANCED_FACE ( 'NONE', ( #89 ), #163, .T. ) ;
#184 = AXIS2_PLACEMENT_3D ( 'NONE', #24, #98, #11 ) ;
#185 = ORIENTED_EDGE ( 'NONE', *, *, #213, .F. ) ;
#186 = DIRECTION ( 'NONE',  ( -0.0000000000000000000, 6.411013823997873800E-020, 1.000000000000000000 ) ) ;
#187 = CARTESIAN_POINT ( 'NONE',  ( 0.0000000000000000000, -8.477276373145712500E-018, -132.2298875945852800 ) ) ;
#188 = MANIFOLD_SOLID_BREP ( '¸ðµû±â1', #60 ) ;
#189 = VERTEX_POINT ( 'NONE', #145 ) ;
#190 = CARTESIAN_POINT ( 'NONE',  ( 6.075396230145081700E-016, 4.960937500000007100, -3.180463889248949400E-019 ) ) ;
#191 = SURFACE_SIDE_STYLE ('',( #206 ) ) ;
#192 = SURFACE_SIDE_STYLE ('',( #212 ) ) ;
#193 = VERTEX_POINT ( 'NONE', #144 ) ;
#194 = FILL_AREA_STYLE_COLOUR ( '', #156 ) ;
#195 = CIRCLE ( 'NONE', #53, 3.968750000000007100 ) ;
#196 = AXIS2_PLACEMENT_3D ( 'NONE', #169, #130, #113 ) ;
#197 = VERTEX_POINT ( 'NONE', #66 ) ;
#198 = AXIS2_PLACEMENT_3D ( 'NONE', #61, #186, #141 ) ;
#199 = CYLINDRICAL_SURFACE ( 'NONE', #116, 4.960937500000007100 ) ;
#200 = PRODUCT_RELATED_PRODUCT_CATEGORY ( 'part', '', ( #167 ) ) ;
#201 = FACE_OUTER_BOUND ( 'NONE', #29, .T. ) ;
#202 = FACE_OUTER_BOUND ( 'NONE', #132, .T. ) ;
#203 = FACE_OUTER_BOUND ( 'NONE', #134, .T. ) ;
#204 = CARTESIAN_POINT ( 'NONE',  ( 0.0000000000000000000, 1.948491960784266500E-035, 3.039288347017160700E-016 ) ) ;
#205 = AXIS2_PLACEMENT_3D ( 'NONE', #204, #140, #173 ) ;
#206 = SURFACE_STYLE_FILL_AREA ( #178 ) ;
#207 = CARTESIAN_POINT ( 'NONE',  ( 0.0000000000000000000, 1.948491960784266500E-035, 3.039288347017160700E-016 ) ) ;
#208 = CIRCLE ( 'NONE', #198, 4.960937500000015100 ) ;
#209 = DIRECTION ( 'NONE',  ( 0.0000000000000000000, -1.000000000000000000, 0.0000000000000000000 ) ) ;
#210 = PLANE ( 'NONE',  #196 ) ;
#211 = COLOUR_RGB ( '',0.7921568627450980000, 0.8196078431372548800, 0.9333333333333333500 ) ;
#212 = SURFACE_STYLE_FILL_AREA ( #50 ) ;
#213 = EDGE_CURVE ( 'NONE', #122, #171, #36, .T. ) ;
#214 = ORIENTED_EDGE ( 'NONE', *, *, #20, .T. ) ;
ENDSEC;
END-ISO-10303-21;
