ISO-10303-21;
HEADER;
FILE_DESCRIPTION (( 'STEP AP214' ),
    '1' );
FILE_NAME ('03-0362.STEP',
    '2020-07-23T07:11:42',
    ( '' ),
    ( '' ),
    'SwSTEP 2.0',
    'SolidWorks 2014',
    '' );
FILE_SCHEMA (( 'AUTOMOTIVE_DESIGN' ));
ENDSEC;

DATA;
#1 = VERTEX_POINT ( 'NONE', #162 ) ;
#2 = PRODUCT ( '03-0362', '03-0362', '', ( #87 ) ) ;
#3 = CARTESIAN_POINT ( 'NONE',  ( 0.0000000000000000000, 5.141956996838939100E-018, -135.4870830983687100 ) ) ;
#4 = DIRECTION ( 'NONE',  ( 0.0000000000000000000, 1.000000000000000000, 3.795163995895966900E-020 ) ) ;
#5 = AXIS2_PLACEMENT_3D ( 'NONE', #120, #138, #23 ) ;
#6 = DIRECTION ( 'NONE',  ( 0.0000000000000000000, -1.000000000000000000, 0.0000000000000000000 ) ) ;
#7 = DIRECTION ( 'NONE',  ( 0.0000000000000000000, -1.000000000000000000, 0.0000000000000000000 ) ) ;
#8 = CIRCLE ( 'NONE', #193, 4.127500000000006600 ) ;
#9 = DIRECTION ( 'NONE',  ( 0.0000000000000000000, 0.0000000000000000000, 1.000000000000000000 ) ) ;
#10 = AXIS2_PLACEMENT_3D ( 'NONE', #141, #9, #58 ) ;
#11 = FILL_AREA_STYLE ('',( #142 ) ) ;
#12 = EDGE_CURVE ( 'NONE', #1, #64, #181, .T. ) ;
#13 = ORIENTED_EDGE ( 'NONE', *, *, #114, .T. ) ;
#14 = ORIENTED_EDGE ( 'NONE', *, *, #104, .F. ) ;
#15 = COLOUR_RGB ( '',0.7921568627450980000, 0.8196078431372548800, 0.9333333333333333500 ) ;
#16 = EDGE_CURVE ( 'NONE', #145, #47, #122, .T. ) ;
#17 = CLOSED_SHELL ( 'NONE', ( #106, #109, #22, #30, #102, #92, #26 ) ) ;
#18 = FACE_OUTER_BOUND ( 'NONE', #78, .T. ) ;
#19 = PRODUCT_DEFINITION ( 'UNKNOWN', '', #149, #214 ) ;
#20 = VECTOR ( 'NONE', #155, 1000.000000000000000 ) ;
#21 = CARTESIAN_POINT ( 'NONE',  ( 6.318412079350887500E-016, 5.159375000000009600, 1.958067424132579100E-019 ) ) ;
#22 = ADVANCED_FACE ( 'NONE', ( #62 ), #37, .T. ) ;
#23 = DIRECTION ( 'NONE',  ( 0.0000000000000000000, 1.000000000000000000, 3.795163995895558300E-020 ) ) ;
#24 = AXIS2_PLACEMENT_3D ( 'NONE', #29, #206, #7 ) ;
#25 = VERTEX_POINT ( 'NONE', #84 ) ;
#26 = ADVANCED_FACE ( 'NONE', ( #208 ), #163, .T. ) ;
#27 =( NAMED_UNIT ( * ) PLANE_ANGLE_UNIT ( ) SI_UNIT ( $, .RADIAN. ) );
#28 = FACE_OUTER_BOUND ( 'NONE', #43, .T. ) ;
#29 = CARTESIAN_POINT ( 'NONE',  ( 0.0000000000000000000, 5.060851188527272200E-018, -133.3499999999999900 ) ) ;
#30 = ADVANCED_FACE ( 'NONE', ( #18 ), #185, .F. ) ;
#31 = DIRECTION ( 'NONE',  ( 0.0000000000000000000, 3.795163995895967500E-020, -1.000000000000000000 ) ) ;
#32 = AXIS2_PLACEMENT_3D ( 'NONE', #110, #31, #126 ) ;
#33 = ORIENTED_EDGE ( 'NONE', *, *, #116, .F. ) ;
#34 = CONICAL_SURFACE ( 'NONE', #182, 2414.213562373073700, 1.178097245096169300 ) ;
#35 = FACE_OUTER_BOUND ( 'NONE', #57, .T. ) ;
#36 = ORIENTED_EDGE ( 'NONE', *, *, #209, .F. ) ;
#37 = CONICAL_SURFACE ( 'NONE', #180, 2414.213562373073700, 1.178097245096169300 ) ;
#38 = UNCERTAINTY_MEASURE_WITH_UNIT (LENGTH_MEASURE( 1.000000000000000100E-005 ), #112, 'distance_accuracy_value', 'NONE');
#39 = DIRECTION ( 'NONE',  ( 0.0000000000000000000, 1.000000000000000000, 3.795163995895558300E-020 ) ) ;
#40 = DIRECTION ( 'NONE',  ( 0.0000000000000000000, -1.000000000000000000, -3.795163995895966900E-020 ) ) ;
#41 = AXIS2_PLACEMENT_3D ( 'NONE', #173, #71, #119 ) ;
#42 = ORIENTED_EDGE ( 'NONE', *, *, #213, .F. ) ;
#43 = EDGE_LOOP ( 'NONE', ( #115, #198, #42 ) ) ;
#44 =( NAMED_UNIT ( * ) SI_UNIT ( $, .STERADIAN. ) SOLID_ANGLE_UNIT ( ) );
#45 = COLOUR_RGB ( '',0.7921568627450980000, 0.8196078431372548800, 0.9333333333333333500 ) ;
#46 =( LENGTH_UNIT ( ) NAMED_UNIT ( * ) SI_UNIT ( .MILLI., .METRE. ) );
#47 = VERTEX_POINT ( 'NONE', #53 ) ;
#48 = CYLINDRICAL_SURFACE ( 'NONE', #41, 5.159375000000009600 ) ;
#49 = CIRCLE ( 'NONE', #63, 4.127500000000006600 ) ;
#50 = CARTESIAN_POINT ( 'NONE',  ( 0.0000000000000000000, 0.0000000000000000000, 0.0000000000000000000 ) ) ;
#51 = AXIS2_PLACEMENT_3D ( 'NONE', #99, #152, #66 ) ;
#52 = DIRECTION ( 'NONE',  ( 0.0000000000000000000, -1.000000000000000000, 0.0000000000000000000 ) ) ;
#53 = CARTESIAN_POINT ( 'NONE',  ( 6.318412079350898300E-016, 5.159375000000018500, -133.3499999999999900 ) ) ;
#54 = EDGE_LOOP ( 'NONE', ( #175, #113, #154, #105 ) ) ;
#55 =( LENGTH_UNIT ( ) NAMED_UNIT ( * ) SI_UNIT ( .MILLI., .METRE. ) );
#56 = PRESENTATION_LAYER_ASSIGNMENT (  '', '', ( #69 ) ) ;
#57 = EDGE_LOOP ( 'NONE', ( #189, #179, #199, #36 ) ) ;
#58 = DIRECTION ( 'NONE',  ( 1.000000000000000000, 0.0000000000000000000, 0.0000000000000000000 ) ) ;
#59 = CARTESIAN_POINT ( 'NONE',  ( 0.0000000000000000000, -1.198598942389850600E-035, 3.158227005963372100E-016 ) ) ;
#60 = STYLED_ITEM ( 'NONE', ( #157 ), #164 ) ;
#61 = VERTEX_POINT ( 'NONE', #137 ) ;
#62 = FACE_OUTER_BOUND ( 'NONE', #97, .T. ) ;
#63 = AXIS2_PLACEMENT_3D ( 'NONE', #135, #100, #39 ) ;
#64 = VERTEX_POINT ( 'NONE', #202 ) ;
#65 =( GEOMETRIC_REPRESENTATION_CONTEXT ( 3 ) GLOBAL_UNCERTAINTY_ASSIGNED_CONTEXT ( ( #212 ) ) GLOBAL_UNIT_ASSIGNED_CONTEXT ( ( #46, #144, #127 ) ) REPRESENTATION_CONTEXT ( 'NONE', 'WORKASPACE' ) );
#66 = DIRECTION ( 'NONE',  ( 0.0000000000000000000, 1.000000000000000000, 3.795163995895558300E-020 ) ) ;
#67 = DIRECTION ( 'NONE',  ( 8.659560562354927900E-017, -0.7071067811865470200, -0.7071067811865481300 ) ) ;
#68 = CARTESIAN_POINT ( 'NONE',  ( 0.0000000000000000000, 5.159375000000000700, 3.160185073387505000E-016 ) ) ;
#69 = STYLED_ITEM ( 'NONE', ( #146 ), #82 ) ;
#70 = ORIENTED_EDGE ( 'NONE', *, *, #160, .T. ) ;
#71 = DIRECTION ( 'NONE',  ( -0.0000000000000000000, -3.795163995895966900E-020, 1.000000000000000000 ) ) ;
#72 = SURFACE_STYLE_FILL_AREA ( #11 ) ;
#73 = DIRECTION ( 'NONE',  ( 0.0000000000000000000, 3.795163995895967500E-020, -1.000000000000000000 ) ) ;
#74 = DIRECTION ( 'NONE',  ( -0.0000000000000000000, -3.795163995895966900E-020, 1.000000000000000000 ) ) ;
#75 = FACE_OUTER_BOUND ( 'NONE', #128, .T. ) ;
#76 = SURFACE_STYLE_USAGE ( .BOTH. , #93 ) ;
#77 = CIRCLE ( 'NONE', #95, 5.159375000000009600 ) ;
#78 = EDGE_LOOP ( 'NONE', ( #140, #133 ) ) ;
#79 = MECHANICAL_DESIGN_GEOMETRIC_PRESENTATION_REPRESENTATION (  '', ( #60 ), #88 ) ;
#80 = CONICAL_SURFACE ( 'NONE', #51, 4.127500000000006600, 0.7853981633974475000 ) ;
#81 = CARTESIAN_POINT ( 'NONE',  ( 0.0000000000000000000, 4.127500000000006600, 3.159793459902678200E-016 ) ) ;
#82 = ADVANCED_BREP_SHAPE_REPRESENTATION ( '03-0362', ( #164, #10 ), #148 ) ;
#83 = DIRECTION ( 'NONE',  ( 0.0000000000000000000, -0.9238795325112855200, 0.3826834323650926700 ) ) ;
#84 = CARTESIAN_POINT ( 'NONE',  ( 0.0000000000000000000, -5.159375000000018500, -133.3499999999999900 ) ) ;
#85 = CARTESIAN_POINT ( 'NONE',  ( 0.0000000000000000000, -3.280968296212073200E-017, 864.5129169016312300 ) ) ;
#86 = DIRECTION ( 'NONE',  ( -0.0000000000000000000, -3.795163995895966900E-020, 1.000000000000000000 ) ) ;
#87 = PRODUCT_CONTEXT ( 'NONE', #124, 'mechanical' ) ;
#88 =( GEOMETRIC_REPRESENTATION_CONTEXT ( 3 ) GLOBAL_UNCERTAINTY_ASSIGNED_CONTEXT ( ( #151 ) ) GLOBAL_UNIT_ASSIGNED_CONTEXT ( ( #55, #156, #158 ) ) REPRESENTATION_CONTEXT ( 'NONE', 'WORKASPACE' ) );
#89 = ORIENTED_EDGE ( 'NONE', *, *, #153, .F. ) ;
#90 = CARTESIAN_POINT ( 'NONE',  ( 0.0000000000000000000, -5.159375000000009600, -1.958067424132579100E-019 ) ) ;
#91 = LINE ( 'NONE', #21, #20 ) ;
#92 = ADVANCED_FACE ( 'NONE', ( #75 ), #107, .T. ) ;
#93 = SURFACE_SIDE_STYLE ('',( #72 ) ) ;
#94 = DIRECTION ( 'NONE',  ( 0.0000000000000000000, 1.000000000000000000, 0.0000000000000000000 ) ) ;
#95 = AXIS2_PLACEMENT_3D ( 'NONE', #174, #73, #94 ) ;
#96 = VECTOR ( 'NONE', #136, 1000.000000000000000 ) ;
#97 = EDGE_LOOP ( 'NONE', ( #33, #211, #14 ) ) ;
#98 = VECTOR ( 'NONE', #121, 1000.000000000000000 ) ;
#99 = CARTESIAN_POINT ( 'NONE',  ( 0.0000000000000000000, -1.198598942389850800E-035, 3.158227005963372100E-016 ) ) ;
#100 = DIRECTION ( 'NONE',  ( -0.0000000000000000000, -3.795163995895966900E-020, 1.000000000000000000 ) ) ;
#101 = CARTESIAN_POINT ( 'NONE',  ( 5.054729663480707600E-016, -4.127500000000006600, 3.156660552024066500E-016 ) ) ;
#102 = ADVANCED_FACE ( 'NONE', ( #28 ), #34, .T. ) ;
#103 = CARTESIAN_POINT ( 'NONE',  ( 0.0000000000000000000, 5.060851188527272200E-018, -133.3499999999999900 ) ) ;
#104 = EDGE_CURVE ( 'NONE', #25, #47, #131, .T. ) ;
#105 = ORIENTED_EDGE ( 'NONE', *, *, #114, .F. ) ;
#106 = ADVANCED_FACE ( 'NONE', ( #147 ), #80, .T. ) ;
#107 = CYLINDRICAL_SURFACE ( 'NONE', #168, 5.159375000000009600 ) ;
#108 = SURFACE_SIDE_STYLE ('',( #134 ) ) ;
#109 = ADVANCED_FACE ( 'NONE', ( #35 ), #48, .T. ) ;
#110 = CARTESIAN_POINT ( 'NONE',  ( 0.0000000000000000000, 3.916134848265168200E-020, -1.031875000000004500 ) ) ;
#111 = APPLICATION_CONTEXT ( 'automotive_design' ) ;
#112 =( LENGTH_UNIT ( ) NAMED_UNIT ( * ) SI_UNIT ( .MILLI., .METRE. ) );
#113 = ORIENTED_EDGE ( 'NONE', *, *, #12, .T. ) ;
#114 = EDGE_CURVE ( 'NONE', #130, #61, #200, .T. ) ;
#115 = ORIENTED_EDGE ( 'NONE', *, *, #16, .F. ) ;
#116 = EDGE_CURVE ( 'NONE', #145, #25, #183, .T. ) ;
#117 = CIRCLE ( 'NONE', #24, 5.159375000000017600 ) ;
#118 = CIRCLE ( 'NONE', #32, 5.159375000000009600 ) ;
#119 = DIRECTION ( 'NONE',  ( 0.0000000000000000000, -1.000000000000000000, -3.795163995895966900E-020 ) ) ;
#120 = CARTESIAN_POINT ( 'NONE',  ( 0.0000000000000000000, -1.198598942389850800E-035, 3.158227005963372100E-016 ) ) ;
#121 = DIRECTION ( 'NONE',  ( 0.0000000000000000000, 0.7071067811865470200, -0.7071067811865481300 ) ) ;
#122 = LINE ( 'NONE', #205, #96 ) ;
#123 = CARTESIAN_POINT ( 'NONE',  ( 0.0000000000000000000, 5.141956996838939100E-018, -135.4870830983687100 ) ) ;
#124 = APPLICATION_CONTEXT ( 'automotive_design' ) ;
#125 = ORIENTED_EDGE ( 'NONE', *, *, #160, .F. ) ;
#126 = DIRECTION ( 'NONE',  ( 0.0000000000000000000, 1.000000000000000000, 0.0000000000000000000 ) ) ;
#127 =( NAMED_UNIT ( * ) SI_UNIT ( $, .STERADIAN. ) SOLID_ANGLE_UNIT ( ) );
#128 = EDGE_LOOP ( 'NONE', ( #89, #159, #167, #70 ) ) ;
#129 = MECHANICAL_DESIGN_GEOMETRIC_PRESENTATION_REPRESENTATION (  '', ( #69 ), #65 ) ;
#130 = VERTEX_POINT ( 'NONE', #81 ) ;
#131 = CIRCLE ( 'NONE', #187, 5.159375000000017600 ) ;
#132 = EDGE_CURVE ( 'NONE', #1, #130, #49, .T. ) ;
#133 = ORIENTED_EDGE ( 'NONE', *, *, #132, .T. ) ;
#134 = SURFACE_STYLE_FILL_AREA ( #207 ) ;
#135 = CARTESIAN_POINT ( 'NONE',  ( 0.0000000000000000000, -1.198598942389850600E-035, 3.158227005963372100E-016 ) ) ;
#136 = DIRECTION ( 'NONE',  ( 1.131426112287698800E-016, 0.9238795325112855200, 0.3826834323650926700 ) ) ;
#137 = CARTESIAN_POINT ( 'NONE',  ( 6.318412079350887500E-016, 5.159375000000009600, -1.031875000000004500 ) ) ;
#138 = DIRECTION ( 'NONE',  ( 0.0000000000000000000, 3.795163995895967500E-020, -1.000000000000000000 ) ) ;
#139 = DIRECTION ( 'NONE',  ( 0.0000000000000000000, 1.000000000000000000, 3.795163995895558300E-020 ) ) ;
#140 = ORIENTED_EDGE ( 'NONE', *, *, #165, .T. ) ;
#141 = CARTESIAN_POINT ( 'NONE',  ( 0.0000000000000000000, 0.0000000000000000000, 0.0000000000000000000 ) ) ;
#142 = FILL_AREA_STYLE_COLOUR ( '', #15 ) ;
#143 = AXIS2_PLACEMENT_3D ( 'NONE', #68, #186, #4 ) ;
#144 =( NAMED_UNIT ( * ) PLANE_ANGLE_UNIT ( ) SI_UNIT ( $, .RADIAN. ) );
#145 = VERTEX_POINT ( 'NONE', #3 ) ;
#146 = PRESENTATION_STYLE_ASSIGNMENT (( #76 ) ) ;
#147 = FACE_OUTER_BOUND ( 'NONE', #54, .T. ) ;
#148 =( GEOMETRIC_REPRESENTATION_CONTEXT ( 3 ) GLOBAL_UNCERTAINTY_ASSIGNED_CONTEXT ( ( #38 ) ) GLOBAL_UNIT_ASSIGNED_CONTEXT ( ( #112, #27, #44 ) ) REPRESENTATION_CONTEXT ( 'NONE', 'WORKASPACE' ) );
#149 = PRODUCT_DEFINITION_FORMATION_WITH_SPECIFIED_SOURCE ( 'ANY', '', #2, .NOT_KNOWN. ) ;
#150 = VECTOR ( 'NONE', #67, 1000.000000000000000 ) ;
#151 = UNCERTAINTY_MEASURE_WITH_UNIT (LENGTH_MEASURE( 1.000000000000000100E-005 ), #55, 'distance_accuracy_value', 'NONE');
#152 = DIRECTION ( 'NONE',  ( 0.0000000000000000000, 3.795163995895967500E-020, -1.000000000000000000 ) ) ;
#153 = EDGE_CURVE ( 'NONE', #47, #61, #91, .T. ) ;
#154 = ORIENTED_EDGE ( 'NONE', *, *, #197, .F. ) ;
#155 = DIRECTION ( 'NONE',  ( -0.0000000000000000000, -3.795163995895966900E-020, 1.000000000000000000 ) ) ;
#156 =( NAMED_UNIT ( * ) PLANE_ANGLE_UNIT ( ) SI_UNIT ( $, .RADIAN. ) );
#157 = PRESENTATION_STYLE_ASSIGNMENT (( #177 ) ) ;
#158 =( NAMED_UNIT ( * ) SI_UNIT ( $, .STERADIAN. ) SOLID_ANGLE_UNIT ( ) );
#159 = ORIENTED_EDGE ( 'NONE', *, *, #213, .T. ) ;
#160 = EDGE_CURVE ( 'NONE', #64, #61, #118, .T. ) ;
#161 = LINE ( 'NONE', #90, #210 ) ;
#162 = CARTESIAN_POINT ( 'NONE',  ( 5.686570871415796500E-016, -4.127500000000006600, 3.156660552024066500E-016 ) ) ;
#163 = CONICAL_SURFACE ( 'NONE', #5, 4.127500000000006600, 0.7853981633974475000 ) ;
#164 = MANIFOLD_SOLID_BREP ( '¸ðµû±â1', #17 ) ;
#165 = EDGE_CURVE ( 'NONE', #130, #1, #8, .T. ) ;
#166 = PRODUCT_DEFINITION_SHAPE ( 'NONE', 'NONE',  #19 ) ;
#167 = ORIENTED_EDGE ( 'NONE', *, *, #209, .T. ) ;
#168 = AXIS2_PLACEMENT_3D ( 'NONE', #50, #172, #40 ) ;
#169 = FILL_AREA_STYLE_COLOUR ( '', #45 ) ;
#170 = PRODUCT_RELATED_PRODUCT_CATEGORY ( 'part', '', ( #2 ) ) ;
#171 = DIRECTION ( 'NONE',  ( 0.0000000000000000000, -1.000000000000000000, 0.0000000000000000000 ) ) ;
#172 = DIRECTION ( 'NONE',  ( -0.0000000000000000000, -3.795163995895966900E-020, 1.000000000000000000 ) ) ;
#173 = CARTESIAN_POINT ( 'NONE',  ( 0.0000000000000000000, 0.0000000000000000000, 0.0000000000000000000 ) ) ;
#174 = CARTESIAN_POINT ( 'NONE',  ( 0.0000000000000000000, 3.916134848265168200E-020, -1.031875000000004500 ) ) ;
#175 = ORIENTED_EDGE ( 'NONE', *, *, #132, .F. ) ;
#176 = VECTOR ( 'NONE', #83, 1000.000000000000000 ) ;
#177 = SURFACE_STYLE_USAGE ( .BOTH. , #108 ) ;
#178 = APPLICATION_PROTOCOL_DEFINITION ( 'draft international standard', 'automotive_design', 1998, #111 ) ;
#179 = ORIENTED_EDGE ( 'NONE', *, *, #153, .T. ) ;
#180 = AXIS2_PLACEMENT_3D ( 'NONE', #201, #188, #52 ) ;
#181 = LINE ( 'NONE', #101, #150 ) ;
#182 = AXIS2_PLACEMENT_3D ( 'NONE', #85, #204, #171 ) ;
#183 = LINE ( 'NONE', #123, #176 ) ;
#184 = CARTESIAN_POINT ( 'NONE',  ( 0.0000000000000000000, 4.127500000000006600, 3.159793459902678200E-016 ) ) ;
#185 = PLANE ( 'NONE',  #143 ) ;
#186 = DIRECTION ( 'NONE',  ( 0.0000000000000000000, 3.795163995895966900E-020, -1.000000000000000000 ) ) ;
#187 = AXIS2_PLACEMENT_3D ( 'NONE', #103, #86, #6 ) ;
#188 = DIRECTION ( 'NONE',  ( -0.0000000000000000000, -3.795163995895966900E-020, 1.000000000000000000 ) ) ;
#189 = ORIENTED_EDGE ( 'NONE', *, *, #104, .T. ) ;
#190 = EDGE_LOOP ( 'NONE', ( #203, #196, #13, #125 ) ) ;
#191 = DIRECTION ( 'NONE',  ( -0.0000000000000000000, -3.795163995895966900E-020, 1.000000000000000000 ) ) ;
#192 = APPLICATION_PROTOCOL_DEFINITION ( 'draft international standard', 'automotive_design', 1998, #124 ) ;
#193 = AXIS2_PLACEMENT_3D ( 'NONE', #59, #191, #139 ) ;
#194 = SHAPE_DEFINITION_REPRESENTATION ( #166, #82 ) ;
#195 = PRESENTATION_LAYER_ASSIGNMENT (  '', '', ( #60 ) ) ;
#196 = ORIENTED_EDGE ( 'NONE', *, *, #165, .F. ) ;
#197 = EDGE_CURVE ( 'NONE', #61, #64, #77, .T. ) ;
#198 = ORIENTED_EDGE ( 'NONE', *, *, #116, .T. ) ;
#199 = ORIENTED_EDGE ( 'NONE', *, *, #197, .T. ) ;
#200 = LINE ( 'NONE', #184, #98 ) ;
#201 = CARTESIAN_POINT ( 'NONE',  ( 0.0000000000000000000, -3.280968296212073200E-017, 864.5129169016312300 ) ) ;
#202 = CARTESIAN_POINT ( 'NONE',  ( 0.0000000000000000000, -5.159375000000009600, -1.031875000000004500 ) ) ;
#203 = ORIENTED_EDGE ( 'NONE', *, *, #12, .F. ) ;
#204 = DIRECTION ( 'NONE',  ( -0.0000000000000000000, -3.795163995895966900E-020, 1.000000000000000000 ) ) ;
#205 = CARTESIAN_POINT ( 'NONE',  ( 0.0000000000000000000, 5.141956996838939100E-018, -135.4870830983687100 ) ) ;
#206 = DIRECTION ( 'NONE',  ( -0.0000000000000000000, -3.795163995895966900E-020, 1.000000000000000000 ) ) ;
#207 = FILL_AREA_STYLE ('',( #169 ) ) ;
#208 = FACE_OUTER_BOUND ( 'NONE', #190, .T. ) ;
#209 = EDGE_CURVE ( 'NONE', #25, #64, #161, .T. ) ;
#210 = VECTOR ( 'NONE', #74, 1000.000000000000000 ) ;
#211 = ORIENTED_EDGE ( 'NONE', *, *, #16, .T. ) ;
#212 = UNCERTAINTY_MEASURE_WITH_UNIT (LENGTH_MEASURE( 1.000000000000000100E-005 ), #46, 'distance_accuracy_value', 'NONE');
#213 = EDGE_CURVE ( 'NONE', #47, #25, #117, .T. ) ;
#214 = PRODUCT_DEFINITION_CONTEXT ( 'detailed design', #111, 'design' ) ;
ENDSEC;
END-ISO-10303-21;
