ISO-10303-21;
HEADER;
FILE_DESCRIPTION (( 'STEP AP214' ),
    '1' );
FILE_NAME ('03-0363.STEP',
    '2020-07-23T07:12:22',
    ( '' ),
    ( '' ),
    'SwSTEP 2.0',
    'SolidWorks 2014',
    '' );
FILE_SCHEMA (( 'AUTOMOTIVE_DESIGN' ));
ENDSEC;

DATA;
#1 = EDGE_CURVE ( 'NONE', #164, #63, #76, .T. ) ;
#2 = LINE ( 'NONE', #158, #166 ) ;
#3 = DIRECTION ( 'NONE',  ( 1.131426112287698800E-016, 0.9238795325112855200, 0.3826834323650926700 ) ) ;
#4 = CIRCLE ( 'NONE', #198, 5.357812500000017400 ) ;
#5 = ADVANCED_FACE ( 'NONE', ( #167 ), #212, .F. ) ;
#6 = ORIENTED_EDGE ( 'NONE', *, *, #83, .F. ) ;
#7 =( LENGTH_UNIT ( ) NAMED_UNIT ( * ) SI_UNIT ( .MILLI., .METRE. ) );
#8 = FILL_AREA_STYLE ('',( #22 ) ) ;
#9 = AXIS2_PLACEMENT_3D ( 'NONE', #77, #61, #165 ) ;
#10 = CARTESIAN_POINT ( 'NONE',  ( 0.0000000000000000000, -5.357812500000016500, -136.5250000000000100 ) ) ;
#11 = EDGE_CURVE ( 'NONE', #40, #184, #79, .T. ) ;
#12 = DIRECTION ( 'NONE',  ( 0.0000000000000000000, 0.0000000000000000000, 1.000000000000000000 ) ) ;
#13 = DIRECTION ( 'NONE',  ( 0.0000000000000000000, 1.000000000000000000, -9.694614466127563600E-020 ) ) ;
#14 = CARTESIAN_POINT ( 'NONE',  ( 0.0000000000000000000, 0.0000000000000000000, 0.0000000000000000000 ) ) ;
#15 = ORIENTED_EDGE ( 'NONE', *, *, #92, .F. ) ;
#16 = CARTESIAN_POINT ( 'NONE',  ( 0.0000000000000000000, 0.0000000000000000000, 0.0000000000000000000 ) ) ;
#17 = STYLED_ITEM ( 'NONE', ( #126 ), #190 ) ;
#18 = ADVANCED_FACE ( 'NONE', ( #176 ), #45, .T. ) ;
#19 = ORIENTED_EDGE ( 'NONE', *, *, #1, .F. ) ;
#20 = DIRECTION ( 'NONE',  ( 0.0000000000000000000, -1.000000000000000000, 0.0000000000000000000 ) ) ;
#21 = SURFACE_STYLE_USAGE ( .BOTH. , #36 ) ;
#22 = FILL_AREA_STYLE_COLOUR ( '', #168 ) ;
#23 = CARTESIAN_POINT ( 'NONE',  ( 5.905285135701017700E-016, -4.286250000000005200, 3.287466414732348500E-016 ) ) ;
#24 = ORIENTED_EDGE ( 'NONE', *, *, #92, .T. ) ;
#25 = PRODUCT_DEFINITION_CONTEXT ( 'detailed design', #133, 'design' ) ;
#26 = LINE ( 'NONE', #85, #78 ) ;
#27 = PRESENTATION_LAYER_ASSIGNMENT (  '', '', ( #17 ) ) ;
#28 = COLOUR_RGB ( '',0.7921568627450980000, 0.8196078431372548800, 0.9333333333333333500 ) ;
#29 =( NAMED_UNIT ( * ) SI_UNIT ( $, .STERADIAN. ) SOLID_ANGLE_UNIT ( ) );
#30 = EDGE_CURVE ( 'NONE', #136, #63, #70, .T. ) ;
#31 = ORIENTED_EDGE ( 'NONE', *, *, #42, .F. ) ;
#32 = CARTESIAN_POINT ( 'NONE',  ( 0.0000000000000000000, -1.345072290428857100E-017, -138.7442786021521200 ) ) ;
#33 = LINE ( 'NONE', #32, #119 ) ;
#34 = DIRECTION ( 'NONE',  ( -0.0000000000000000000, 9.694614466127563600E-020, 1.000000000000000000 ) ) ;
#35 = FACE_OUTER_BOUND ( 'NONE', #147, .T. ) ;
#36 = SURFACE_SIDE_STYLE ('',( #206 ) ) ;
#37 = CARTESIAN_POINT ( 'NONE',  ( 6.561427928556688200E-016, 5.357812500000008500, -5.194192656929916500E-019 ) ) ;
#38 = CARTESIAN_POINT ( 'NONE',  ( 0.0000000000000000000, 4.286250000000005200, 3.279155706481260200E-016 ) ) ;
#39 = UNCERTAINTY_MEASURE_WITH_UNIT (LENGTH_MEASURE( 1.000000000000000100E-005 ), #7, 'distance_accuracy_value', 'NONE');
#40 = VERTEX_POINT ( 'NONE', #181 ) ;
#41 = FILL_AREA_STYLE ('',( #142 ) ) ;
#42 = EDGE_CURVE ( 'NONE', #189, #40, #33, .T. ) ;
#43 = AXIS2_PLACEMENT_3D ( 'NONE', #105, #69, #104 ) ;
#44 = SHAPE_DEFINITION_REPRESENTATION ( #87, #190 ) ;
#45 = CYLINDRICAL_SURFACE ( 'NONE', #171, 5.357812500000008500 ) ;
#46 = CARTESIAN_POINT ( 'NONE',  ( 0.0000000000000000000, -1.038838531386000300E-019, -1.071562500000019100 ) ) ;
#47 = DIRECTION ( 'NONE',  ( 0.0000000000000000000, -1.000000000000000000, 9.694614466127562400E-020 ) ) ;
#48 = DIRECTION ( 'NONE',  ( 0.0000000000000000000, -1.000000000000000000, 9.694614466127562400E-020 ) ) ;
#49 = APPLICATION_PROTOCOL_DEFINITION ( 'draft international standard', 'automotive_design', 1998, #133 ) ;
#50 = EDGE_CURVE ( 'NONE', #63, #136, #135, .T. ) ;
#51 = APPLICATION_PROTOCOL_DEFINITION ( 'draft international standard', 'automotive_design', 1998, #180 ) ;
#52 = VECTOR ( 'NONE', #131, 1000.000000000000000 ) ;
#53 = ADVANCED_FACE ( 'NONE', ( #127 ), #207, .T. ) ;
#54 = DIRECTION ( 'NONE',  ( 0.0000000000000000000, -9.694614466127563600E-020, -1.000000000000000000 ) ) ;
#55 = EDGE_CURVE ( 'NONE', #143, #164, #88, .T. ) ;
#56 = MECHANICAL_DESIGN_GEOMETRIC_PRESENTATION_REPRESENTATION (  '', ( #17 ), #175 ) ;
#57 = SURFACE_STYLE_USAGE ( .BOTH. , #138 ) ;
#58 = CARTESIAN_POINT ( 'NONE',  ( 0.0000000000000000000, -5.357812500000008500, -1.071562500000019100 ) ) ;
#59 = ORIENTED_EDGE ( 'NONE', *, *, #1, .T. ) ;
#60 = DIRECTION ( 'NONE',  ( 0.0000000000000000000, 1.000000000000000000, 0.0000000000000000000 ) ) ;
#61 = DIRECTION ( 'NONE',  ( -0.0000000000000000000, 9.694614466127563600E-020, 1.000000000000000000 ) ) ;
#62 = ORIENTED_EDGE ( 'NONE', *, *, #42, .T. ) ;
#63 = VERTEX_POINT ( 'NONE', #178 ) ;
#64 = PRODUCT_DEFINITION ( 'UNKNOWN', '', #141, #25 ) ;
#65 = ORIENTED_EDGE ( 'NONE', *, *, #110, .F. ) ;
#66 = ORIENTED_EDGE ( 'NONE', *, *, #100, .T. ) ;
#67 = EDGE_CURVE ( 'NONE', #184, #40, #4, .T. ) ;
#68 =( NAMED_UNIT ( * ) PLANE_ANGLE_UNIT ( ) SI_UNIT ( $, .RADIAN. ) );
#69 = DIRECTION ( 'NONE',  ( 0.0000000000000000000, -9.694614466127563600E-020, -1.000000000000000000 ) ) ;
#70 = CIRCLE ( 'NONE', #148, 5.357812500000008500 ) ;
#71 = DIRECTION ( 'NONE',  ( 0.0000000000000000000, 1.000000000000000000, -9.694614466128016200E-020 ) ) ;
#72 = ORIENTED_EDGE ( 'NONE', *, *, #67, .T. ) ;
#73 = CONICAL_SURFACE ( 'NONE', #183, 4.286250000000005200, 0.7853981633974407300 ) ;
#74 = MANIFOLD_SOLID_BREP ( '¸ðµû±â1', #94 ) ;
#75 = LINE ( 'NONE', #203, #117 ) ;
#76 = LINE ( 'NONE', #214, #52 ) ;
#77 = CARTESIAN_POINT ( 'NONE',  ( 0.0000000000000000000, 3.183043490495535100E-035, 3.283311060606804300E-016 ) ) ;
#78 = VECTOR ( 'NONE', #155, 1000.000000000000000 ) ;
#79 = CIRCLE ( 'NONE', #93, 5.357812500000017400 ) ;
#80 = CONICAL_SURFACE ( 'NONE', #43, 4.286250000000005200, 0.7853981633974407300 ) ;
#81 = ADVANCED_FACE ( 'NONE', ( #196 ), #73, .T. ) ;
#82 = ORIENTED_EDGE ( 'NONE', *, *, #11, .F. ) ;
#83 = EDGE_CURVE ( 'NONE', #189, #184, #26, .T. ) ;
#84 = ADVANCED_FACE ( 'NONE', ( #35 ), #169, .T. ) ;
#85 = CARTESIAN_POINT ( 'NONE',  ( 0.0000000000000000000, -1.345072290428857100E-017, -138.7442786021521200 ) ) ;
#86 = CARTESIAN_POINT ( 'NONE',  ( 0.0000000000000000000, 3.183043490495536200E-035, 3.283311060606804300E-016 ) ) ;
#87 = PRODUCT_DEFINITION_SHAPE ( 'NONE', 'NONE',  #64 ) ;
#88 = CIRCLE ( 'NONE', #9, 4.286250000000005200 ) ;
#89 =( LENGTH_UNIT ( ) NAMED_UNIT ( * ) SI_UNIT ( .MILLI., .METRE. ) );
#90 = ORIENTED_EDGE ( 'NONE', *, *, #83, .T. ) ;
#91 = DIRECTION ( 'NONE',  ( 8.659560562354867500E-017, -0.7071067811865421300, -0.7071067811865530100 ) ) ;
#92 = EDGE_CURVE ( 'NONE', #40, #63, #210, .T. ) ;
#93 = AXIS2_PLACEMENT_3D ( 'NONE', #116, #192, #115 ) ;
#94 = CLOSED_SHELL ( 'NONE', ( #151, #84, #95, #5, #53, #18, #81 ) ) ;
#95 = ADVANCED_FACE ( 'NONE', ( #114 ), #103, .T. ) ;
#96 = CARTESIAN_POINT ( 'NONE',  ( 0.0000000000000000000, 8.349542175698706100E-017, 861.2557213978478800 ) ) ;
#97 =( GEOMETRIC_REPRESENTATION_CONTEXT ( 3 ) GLOBAL_UNCERTAINTY_ASSIGNED_CONTEXT ( ( #208 ) ) GLOBAL_UNIT_ASSIGNED_CONTEXT ( ( #123, #68, #185 ) ) REPRESENTATION_CONTEXT ( 'NONE', 'WORKASPACE' ) );
#98 = EDGE_LOOP ( 'NONE', ( #6, #62, #191 ) ) ;
#99 = DIRECTION ( 'NONE',  ( 0.0000000000000000000, -9.694614466127563600E-020, -1.000000000000000000 ) ) ;
#100 = EDGE_CURVE ( 'NONE', #164, #143, #200, .T. ) ;
#101 = DIRECTION ( 'NONE',  ( 0.0000000000000000000, 1.000000000000000000, -9.694614466128016200E-020 ) ) ;
#102 =( NAMED_UNIT ( * ) SI_UNIT ( $, .STERADIAN. ) SOLID_ANGLE_UNIT ( ) );
#103 = CONICAL_SURFACE ( 'NONE', #186, 2414.213562373073700, 1.178097245096169300 ) ;
#104 = DIRECTION ( 'NONE',  ( 0.0000000000000000000, 1.000000000000000000, -9.694614466128016200E-020 ) ) ;
#105 = CARTESIAN_POINT ( 'NONE',  ( 0.0000000000000000000, 3.183043490495536200E-035, 3.283311060606804300E-016 ) ) ;
#106 = EDGE_LOOP ( 'NONE', ( #65, #157, #59, #195 ) ) ;
#107 = ORIENTED_EDGE ( 'NONE', *, *, #209, .T. ) ;
#108 = AXIS2_PLACEMENT_3D ( 'NONE', #179, #112, #13 ) ;
#109 = ORIENTED_EDGE ( 'NONE', *, *, #50, .F. ) ;
#110 = EDGE_CURVE ( 'NONE', #143, #136, #75, .T. ) ;
#111 = ORIENTED_EDGE ( 'NONE', *, *, #55, .T. ) ;
#112 = DIRECTION ( 'NONE',  ( 0.0000000000000000000, -9.694614466127563600E-020, -1.000000000000000000 ) ) ;
#113 = PRODUCT_RELATED_PRODUCT_CATEGORY ( 'part', '', ( #118 ) ) ;
#114 = FACE_OUTER_BOUND ( 'NONE', #98, .T. ) ;
#115 = DIRECTION ( 'NONE',  ( 0.0000000000000000000, -1.000000000000000000, 0.0000000000000000000 ) ) ;
#116 = CARTESIAN_POINT ( 'NONE',  ( 0.0000000000000000000, -1.323557239988065600E-017, -136.5250000000000100 ) ) ;
#117 = VECTOR ( 'NONE', #91, 1000.000000000000000 ) ;
#118 = PRODUCT ( '03-0363', '03-0363', '', ( #213 ) ) ;
#119 = VECTOR ( 'NONE', #3, 1000.000000000000000 ) ;
#120 = EDGE_LOOP ( 'NONE', ( #193, #129, #109, #19 ) ) ;
#121 = AXIS2_PLACEMENT_3D ( 'NONE', #149, #54, #122 ) ;
#122 = DIRECTION ( 'NONE',  ( 0.0000000000000000000, 1.000000000000000000, 0.0000000000000000000 ) ) ;
#123 =( LENGTH_UNIT ( ) NAMED_UNIT ( * ) SI_UNIT ( .MILLI., .METRE. ) );
#124 = SURFACE_STYLE_FILL_AREA ( #8 ) ;
#125 = DIRECTION ( 'NONE',  ( 0.0000000000000000000, -1.000000000000000000, 0.0000000000000000000 ) ) ;
#126 = PRESENTATION_STYLE_ASSIGNMENT (( #21 ) ) ;
#127 = FACE_OUTER_BOUND ( 'NONE', #154, .T. ) ;
#128 = PRESENTATION_LAYER_ASSIGNMENT (  '', '', ( #152 ) ) ;
#129 = ORIENTED_EDGE ( 'NONE', *, *, #110, .T. ) ;
#130 = CARTESIAN_POINT ( 'NONE',  ( 0.0000000000000000000, 0.0000000000000000000, 0.0000000000000000000 ) ) ;
#131 = DIRECTION ( 'NONE',  ( 0.0000000000000000000, 0.7071067811865421300, -0.7071067811865530100 ) ) ;
#132 = DIRECTION ( 'NONE',  ( 1.000000000000000000, 0.0000000000000000000, 0.0000000000000000000 ) ) ;
#133 = APPLICATION_CONTEXT ( 'automotive_design' ) ;
#134 = FACE_OUTER_BOUND ( 'NONE', #120, .T. ) ;
#135 = CIRCLE ( 'NONE', #121, 5.357812500000008500 ) ;
#136 = VERTEX_POINT ( 'NONE', #58 ) ;
#137 =( NAMED_UNIT ( * ) PLANE_ANGLE_UNIT ( ) SI_UNIT ( $, .RADIAN. ) );
#138 = SURFACE_SIDE_STYLE ('',( #124 ) ) ;
#139 = CARTESIAN_POINT ( 'NONE',  ( 0.0000000000000000000, 8.349542175698706100E-017, 861.2557213978478800 ) ) ;
#140 = CARTESIAN_POINT ( 'NONE',  ( 0.0000000000000000000, -1.345072290428857100E-017, -138.7442786021521200 ) ) ;
#141 = PRODUCT_DEFINITION_FORMATION_WITH_SPECIFIED_SOURCE ( 'ANY', '', #118, .NOT_KNOWN. ) ;
#142 = FILL_AREA_STYLE_COLOUR ( '', #28 ) ;
#143 = VERTEX_POINT ( 'NONE', #23 ) ;
#144 = AXIS2_PLACEMENT_3D ( 'NONE', #14, #12, #132 ) ;
#145 = CARTESIAN_POINT ( 'NONE',  ( 0.0000000000000000000, -1.323557239988065600E-017, -136.5250000000000100 ) ) ;
#146 = DIRECTION ( 'NONE',  ( -0.0000000000000000000, 9.694614466127563600E-020, 1.000000000000000000 ) ) ;
#147 = EDGE_LOOP ( 'NONE', ( #72, #24, #160, #197 ) ) ;
#148 = AXIS2_PLACEMENT_3D ( 'NONE', #46, #161, #60 ) ;
#149 = CARTESIAN_POINT ( 'NONE',  ( 0.0000000000000000000, -1.038838531386000300E-019, -1.071562500000019100 ) ) ;
#150 = UNCERTAINTY_MEASURE_WITH_UNIT (LENGTH_MEASURE( 1.000000000000000100E-005 ), #89, 'distance_accuracy_value', 'NONE');
#151 = ADVANCED_FACE ( 'NONE', ( #134 ), #80, .T. ) ;
#152 = STYLED_ITEM ( 'NONE', ( #173 ), #74 ) ;
#153 = EDGE_LOOP ( 'NONE', ( #66, #111 ) ) ;
#154 = EDGE_LOOP ( 'NONE', ( #31, #90, #82 ) ) ;
#155 = DIRECTION ( 'NONE',  ( 0.0000000000000000000, -0.9238795325112855200, 0.3826834323650926700 ) ) ;
#156 = DIRECTION ( 'NONE',  ( -0.0000000000000000000, 9.694614466127563600E-020, 1.000000000000000000 ) ) ;
#157 = ORIENTED_EDGE ( 'NONE', *, *, #100, .F. ) ;
#158 = CARTESIAN_POINT ( 'NONE',  ( 0.0000000000000000000, -5.357812500000008500, 5.194192656929916500E-019 ) ) ;
#159 = VECTOR ( 'NONE', #202, 1000.000000000000000 ) ;
#160 = ORIENTED_EDGE ( 'NONE', *, *, #50, .T. ) ;
#161 = DIRECTION ( 'NONE',  ( 0.0000000000000000000, -9.694614466127563600E-020, -1.000000000000000000 ) ) ;
#162 = DIRECTION ( 'NONE',  ( -0.0000000000000000000, 9.694614466127563600E-020, 1.000000000000000000 ) ) ;
#163 = MECHANICAL_DESIGN_GEOMETRIC_PRESENTATION_REPRESENTATION (  '', ( #152 ), #97 ) ;
#164 = VERTEX_POINT ( 'NONE', #38 ) ;
#165 = DIRECTION ( 'NONE',  ( 0.0000000000000000000, 1.000000000000000000, -9.694614466128016200E-020 ) ) ;
#166 = VECTOR ( 'NONE', #156, 1000.000000000000000 ) ;
#167 = FACE_OUTER_BOUND ( 'NONE', #153, .T. ) ;
#168 = COLOUR_RGB ( '',0.7921568627450980000, 0.8196078431372548800, 0.9333333333333333500 ) ;
#169 = CYLINDRICAL_SURFACE ( 'NONE', #194, 5.357812500000008500 ) ;
#170 = DIRECTION ( 'NONE',  ( -0.0000000000000000000, 9.694614466127563600E-020, 1.000000000000000000 ) ) ;
#171 = AXIS2_PLACEMENT_3D ( 'NONE', #16, #146, #48 ) ;
#172 = CARTESIAN_POINT ( 'NONE',  ( 0.0000000000000000000, 3.183043490495535100E-035, 3.283311060606804300E-016 ) ) ;
#173 = PRESENTATION_STYLE_ASSIGNMENT (( #57 ) ) ;
#174 =( NAMED_UNIT ( * ) PLANE_ANGLE_UNIT ( ) SI_UNIT ( $, .RADIAN. ) );
#175 =( GEOMETRIC_REPRESENTATION_CONTEXT ( 3 ) GLOBAL_UNCERTAINTY_ASSIGNED_CONTEXT ( ( #39 ) ) GLOBAL_UNIT_ASSIGNED_CONTEXT ( ( #7, #137, #29 ) ) REPRESENTATION_CONTEXT ( 'NONE', 'WORKASPACE' ) );
#176 = FACE_OUTER_BOUND ( 'NONE', #211, .T. ) ;
#177 = ORIENTED_EDGE ( 'NONE', *, *, #11, .T. ) ;
#178 = CARTESIAN_POINT ( 'NONE',  ( 6.561427928556688200E-016, 5.357812500000008500, -1.071562500000019100 ) ) ;
#179 = CARTESIAN_POINT ( 'NONE',  ( 0.0000000000000000000, 5.357812499999999600, 3.278116867949874000E-016 ) ) ;
#180 = APPLICATION_CONTEXT ( 'automotive_design' ) ;
#181 = CARTESIAN_POINT ( 'NONE',  ( 6.561427928556698100E-016, 5.357812500000016500, -136.5250000000000100 ) ) ;
#182 = AXIS2_PLACEMENT_3D ( 'NONE', #96, #34, #20 ) ;
#183 = AXIS2_PLACEMENT_3D ( 'NONE', #86, #99, #101 ) ;
#184 = VERTEX_POINT ( 'NONE', #10 ) ;
#185 =( NAMED_UNIT ( * ) SI_UNIT ( $, .STERADIAN. ) SOLID_ANGLE_UNIT ( ) );
#186 = AXIS2_PLACEMENT_3D ( 'NONE', #139, #201, #125 ) ;
#187 = DIRECTION ( 'NONE',  ( -0.0000000000000000000, 9.694614466127563600E-020, 1.000000000000000000 ) ) ;
#188 = ORIENTED_EDGE ( 'NONE', *, *, #30, .T. ) ;
#189 = VERTEX_POINT ( 'NONE', #140 ) ;
#190 = ADVANCED_BREP_SHAPE_REPRESENTATION ( '03-0363', ( #74, #144 ), #204 ) ;
#191 = ORIENTED_EDGE ( 'NONE', *, *, #67, .F. ) ;
#192 = DIRECTION ( 'NONE',  ( -0.0000000000000000000, 9.694614466127563600E-020, 1.000000000000000000 ) ) ;
#193 = ORIENTED_EDGE ( 'NONE', *, *, #55, .F. ) ;
#194 = AXIS2_PLACEMENT_3D ( 'NONE', #130, #162, #47 ) ;
#195 = ORIENTED_EDGE ( 'NONE', *, *, #30, .F. ) ;
#196 = FACE_OUTER_BOUND ( 'NONE', #106, .T. ) ;
#197 = ORIENTED_EDGE ( 'NONE', *, *, #209, .F. ) ;
#198 = AXIS2_PLACEMENT_3D ( 'NONE', #145, #170, #199 ) ;
#199 = DIRECTION ( 'NONE',  ( 0.0000000000000000000, -1.000000000000000000, 0.0000000000000000000 ) ) ;
#200 = CIRCLE ( 'NONE', #205, 4.286250000000005200 ) ;
#201 = DIRECTION ( 'NONE',  ( -0.0000000000000000000, 9.694614466127563600E-020, 1.000000000000000000 ) ) ;
#202 = DIRECTION ( 'NONE',  ( -0.0000000000000000000, 9.694614466127563600E-020, 1.000000000000000000 ) ) ;
#203 = CARTESIAN_POINT ( 'NONE',  ( 5.249142342845349200E-016, -4.286250000000005200, 3.287466414732348500E-016 ) ) ;
#204 =( GEOMETRIC_REPRESENTATION_CONTEXT ( 3 ) GLOBAL_UNCERTAINTY_ASSIGNED_CONTEXT ( ( #150 ) ) GLOBAL_UNIT_ASSIGNED_CONTEXT ( ( #89, #174, #102 ) ) REPRESENTATION_CONTEXT ( 'NONE', 'WORKASPACE' ) );
#205 = AXIS2_PLACEMENT_3D ( 'NONE', #172, #187, #71 ) ;
#206 = SURFACE_STYLE_FILL_AREA ( #41 ) ;
#207 = CONICAL_SURFACE ( 'NONE', #182, 2414.213562373073700, 1.178097245096169300 ) ;
#208 = UNCERTAINTY_MEASURE_WITH_UNIT (LENGTH_MEASURE( 1.000000000000000100E-005 ), #123, 'distance_accuracy_value', 'NONE');
#209 = EDGE_CURVE ( 'NONE', #184, #136, #2, .T. ) ;
#210 = LINE ( 'NONE', #37, #159 ) ;
#211 = EDGE_LOOP ( 'NONE', ( #15, #177, #107, #188 ) ) ;
#212 = PLANE ( 'NONE',  #108 ) ;
#213 = PRODUCT_CONTEXT ( 'NONE', #180, 'mechanical' ) ;
#214 = CARTESIAN_POINT ( 'NONE',  ( 0.0000000000000000000, 4.286250000000005200, 3.279155706481260200E-016 ) ) ;
ENDSEC;
END-ISO-10303-21;
