ISO-10303-21;
HEADER;
FILE_DESCRIPTION (( 'STEP AP214' ),
    '1' );
FILE_NAME ('03-0364.STEP',
    '2020-07-23T07:13:05',
    ( '' ),
    ( '' ),
    'SwSTEP 2.0',
    'SolidWorks 2014',
    '' );
FILE_SCHEMA (( 'AUTOMOTIVE_DESIGN' ));
ENDSEC;

DATA;
#1 =( NAMED_UNIT ( * ) PLANE_ANGLE_UNIT ( ) SI_UNIT ( $, .RADIAN. ) );
#2 = APPLICATION_CONTEXT ( 'automotive_design' ) ;
#3 = DIRECTION ( 'NONE',  ( 0.0000000000000000000, 1.000000000000000000, -4.893540246062392800E-020 ) ) ;
#4 = DIRECTION ( 'NONE',  ( 0.0000000000000000000, -4.893540246061878800E-020, -1.000000000000000000 ) ) ;
#5 = DIRECTION ( 'NONE',  ( -0.0000000000000000000, 4.893540246061878800E-020, 1.000000000000000000 ) ) ;
#6 = CIRCLE ( 'NONE', #150, 4.445000000000003800 ) ;
#7 =( GEOMETRIC_REPRESENTATION_CONTEXT ( 3 ) GLOBAL_UNCERTAINTY_ASSIGNED_CONTEXT ( ( #130 ) ) GLOBAL_UNIT_ASSIGNED_CONTEXT ( ( #183, #1, #122 ) ) REPRESENTATION_CONTEXT ( 'NONE', 'WORKASPACE' ) );
#8 = CARTESIAN_POINT ( 'NONE',  ( 0.0000000000000000000, 4.445000000000003800, 3.401406196891474200E-016 ) ) ;
#9 = ORIENTED_EDGE ( 'NONE', *, *, #29, .F. ) ;
#10 = EDGE_CURVE ( 'NONE', #209, #102, #100, .T. ) ;
#11 = CONICAL_SURFACE ( 'NONE', #145, 2414.213562373073700, 1.178097245096169300 ) ;
#12 = FACE_OUTER_BOUND ( 'NONE', #99, .T. ) ;
#13 = ORIENTED_EDGE ( 'NONE', *, *, #184, .T. ) ;
#14 = DIRECTION ( 'NONE',  ( 0.0000000000000000000, -4.893540246061878200E-020, -1.000000000000000000 ) ) ;
#15 = ORIENTED_EDGE ( 'NONE', *, *, #53, .F. ) ;
#16 = CONICAL_SURFACE ( 'NONE', #181, 2414.213562373073700, 1.178097245096169300 ) ;
#17 = ADVANCED_FACE ( 'NONE', ( #12 ), #11, .T. ) ;
#18 = ORIENTED_EDGE ( 'NONE', *, *, #107, .F. ) ;
#19 = DIRECTION ( 'NONE',  ( 1.000000000000000000, 0.0000000000000000000, 0.0000000000000000000 ) ) ;
#20 =( GEOMETRIC_REPRESENTATION_CONTEXT ( 3 ) GLOBAL_UNCERTAINTY_ASSIGNED_CONTEXT ( ( #148 ) ) GLOBAL_UNIT_ASSIGNED_CONTEXT ( ( #96, #182, #212 ) ) REPRESENTATION_CONTEXT ( 'NONE', 'WORKASPACE' ) );
#21 = DIRECTION ( 'NONE',  ( -0.0000000000000000000, 4.893540246061878800E-020, 1.000000000000000000 ) ) ;
#22 = APPLICATION_PROTOCOL_DEFINITION ( 'draft international standard', 'automotive_design', 1998, #2 ) ;
#23 = EDGE_CURVE ( 'NONE', #28, #209, #6, .T. ) ;
#24 = FACE_OUTER_BOUND ( 'NONE', #70, .T. ) ;
#25 = DIRECTION ( 'NONE',  ( 0.0000000000000000000, 1.000000000000000000, -4.893540246061878800E-020 ) ) ;
#26 = DIRECTION ( 'NONE',  ( 0.0000000000000000000, -1.000000000000000000, 4.893540246061878200E-020 ) ) ;
#27 = FACE_OUTER_BOUND ( 'NONE', #75, .T. ) ;
#28 = VERTEX_POINT ( 'NONE', #79 ) ;
#29 = EDGE_CURVE ( 'NONE', #200, #102, #63, .T. ) ;
#30 = FACE_OUTER_BOUND ( 'NONE', #176, .T. ) ;
#31 = DIRECTION ( 'NONE',  ( 0.0000000000000000000, -4.893540246061878200E-020, -1.000000000000000000 ) ) ;
#32 = DIRECTION ( 'NONE',  ( 0.0000000000000000000, 1.000000000000000000, 0.0000000000000000000 ) ) ;
#33 = AXIS2_PLACEMENT_3D ( 'NONE', #56, #4, #25 ) ;
#34 = ORIENTED_EDGE ( 'NONE', *, *, #129, .T. ) ;
#35 = FACE_OUTER_BOUND ( 'NONE', #114, .T. ) ;
#36 = AXIS2_PLACEMENT_3D ( 'NONE', #206, #140, #89 ) ;
#37 = ADVANCED_FACE ( 'NONE', ( #24 ), #16, .T. ) ;
#38 = EDGE_CURVE ( 'NONE', #28, #200, #92, .T. ) ;
#39 = ORIENTED_EDGE ( 'NONE', *, *, #94, .T. ) ;
#40 = SURFACE_STYLE_USAGE ( .BOTH. , #137 ) ;
#41 = CARTESIAN_POINT ( 'NONE',  ( 0.0000000000000000000, -6.948899285375092200E-018, -142.0014741059355300 ) ) ;
#42 = DIRECTION ( 'NONE',  ( 0.0000000000000000000, 1.000000000000000000, 0.0000000000000000000 ) ) ;
#43 = CARTESIAN_POINT ( 'NONE',  ( 0.0000000000000000000, 0.0000000000000000000, 0.0000000000000000000 ) ) ;
#44 = MANIFOLD_SOLID_BREP ( '¸ðµû±â1', #162 ) ;
#45 = CARTESIAN_POINT ( 'NONE',  ( 0.0000000000000000000, -5.556250000000007500, 2.718973299218134900E-019 ) ) ;
#46 = AXIS2_PLACEMENT_3D ( 'NONE', #104, #59, #3 ) ;
#47 = ORIENTED_EDGE ( 'NONE', *, *, #88, .T. ) ;
#48 = MECHANICAL_DESIGN_GEOMETRIC_PRESENTATION_REPRESENTATION (  '', ( #198 ), #7 ) ;
#49 = SURFACE_SIDE_STYLE ('',( #180 ) ) ;
#50 = CARTESIAN_POINT ( 'NONE',  ( 5.443555022209988900E-016, -4.445000000000003800, 3.405756554170223900E-016 ) ) ;
#51 = DIRECTION ( 'NONE',  ( -0.0000000000000000000, 4.893540246061878800E-020, 1.000000000000000000 ) ) ;
#52 = ADVANCED_FACE ( 'NONE', ( #132 ), #171, .T. ) ;
#53 = EDGE_CURVE ( 'NONE', #213, #200, #69, .T. ) ;
#54 =( LENGTH_UNIT ( ) NAMED_UNIT ( * ) SI_UNIT ( .MILLI., .METRE. ) );
#55 = CARTESIAN_POINT ( 'NONE',  ( 0.0000000000000000000, 0.0000000000000000000, 0.0000000000000000000 ) ) ;
#56 = CARTESIAN_POINT ( 'NONE',  ( 0.0000000000000000000, 5.556249999999998600, 3.400862402231630900E-016 ) ) ;
#57 = VECTOR ( 'NONE', #83, 1000.000000000000000 ) ;
#58 = CARTESIAN_POINT ( 'NONE',  ( 0.0000000000000000000, -6.948899285375092200E-018, -142.0014741059355300 ) ) ;
#59 = DIRECTION ( 'NONE',  ( 0.0000000000000000000, -4.893540246061878200E-020, -1.000000000000000000 ) ) ;
#60 = LINE ( 'NONE', #41, #167 ) ;
#61 = ORIENTED_EDGE ( 'NONE', *, *, #53, .T. ) ;
#62 = EDGE_LOOP ( 'NONE', ( #131, #166, #195, #144 ) ) ;
#63 = CIRCLE ( 'NONE', #201, 5.556250000000007500 ) ;
#64 = CYLINDRICAL_SURFACE ( 'NONE', #157, 5.556250000000007500 ) ;
#65 = ORIENTED_EDGE ( 'NONE', *, *, #94, .F. ) ;
#66 = CARTESIAN_POINT ( 'NONE',  ( 0.0000000000000000000, 1.665556244190685800E-035, 3.403581375530849300E-016 ) ) ;
#67 = ADVANCED_FACE ( 'NONE', ( #27 ), #153, .F. ) ;
#68 = AXIS2_PLACEMENT_3D ( 'NONE', #66, #31, #197 ) ;
#69 = LINE ( 'NONE', #45, #214 ) ;
#70 = EDGE_LOOP ( 'NONE', ( #170, #34, #193 ) ) ;
#71 = PRESENTATION_LAYER_ASSIGNMENT (  '', '', ( #113 ) ) ;
#72 = CARTESIAN_POINT ( 'NONE',  ( 0.0000000000000000000, 4.445000000000003800, 3.401406196891474200E-016 ) ) ;
#73 = CARTESIAN_POINT ( 'NONE',  ( 0.0000000000000000000, -5.556250000000014600, -139.6999999999999900 ) ) ;
#74 = DIRECTION ( 'NONE',  ( 0.0000000000000000000, -4.893540246061878200E-020, -1.000000000000000000 ) ) ;
#75 = EDGE_LOOP ( 'NONE', ( #192, #196 ) ) ;
#76 = DIRECTION ( 'NONE',  ( 0.0000000000000000000, -0.9238795325112855200, 0.3826834323650926700 ) ) ;
#77 = FACE_OUTER_BOUND ( 'NONE', #62, .T. ) ;
#78 = EDGE_CURVE ( 'NONE', #213, #186, #106, .T. ) ;
#79 = CARTESIAN_POINT ( 'NONE',  ( 6.123999399986238900E-016, -4.445000000000003800, 3.405756554170223900E-016 ) ) ;
#80 = ORIENTED_EDGE ( 'NONE', *, *, #119, .T. ) ;
#81 = VECTOR ( 'NONE', #205, 1000.000000000000000 ) ;
#82 = AXIS2_PLACEMENT_3D ( 'NONE', #138, #175, #202 ) ;
#83 = DIRECTION ( 'NONE',  ( 8.659560562354926700E-017, -0.7071067811865470200, -0.7071067811865481300 ) ) ;
#84 = FILL_AREA_STYLE_COLOUR ( '', #133 ) ;
#85 = PRODUCT_DEFINITION ( 'UNKNOWN', '', #164, #173 ) ;
#86 = MECHANICAL_DESIGN_GEOMETRIC_PRESENTATION_REPRESENTATION (  '', ( #113 ), #20 ) ;
#87 = ORIENTED_EDGE ( 'NONE', *, *, #129, .F. ) ;
#88 = EDGE_CURVE ( 'NONE', #102, #200, #178, .T. ) ;
#89 = DIRECTION ( 'NONE',  ( 0.0000000000000000000, -1.000000000000000000, 0.0000000000000000000 ) ) ;
#90 = VERTEX_POINT ( 'NONE', #58 ) ;
#91 = CARTESIAN_POINT ( 'NONE',  ( 6.804443777762491000E-016, 5.556250000000007500, -1.111250000000005000 ) ) ;
#92 = LINE ( 'NONE', #50, #57 ) ;
#93 = DIRECTION ( 'NONE',  ( 0.0000000000000000000, -1.000000000000000000, 0.0000000000000000000 ) ) ;
#94 = EDGE_CURVE ( 'NONE', #186, #102, #210, .T. ) ;
#95 = DIRECTION ( 'NONE',  ( 0.0000000000000000000, -1.000000000000000000, 0.0000000000000000000 ) ) ;
#96 =( LENGTH_UNIT ( ) NAMED_UNIT ( * ) SI_UNIT ( .MILLI., .METRE. ) );
#97 = PRODUCT_DEFINITION_SHAPE ( 'NONE', 'NONE',  #85 ) ;
#98 = ORIENTED_EDGE ( 'NONE', *, *, #38, .F. ) ;
#99 = EDGE_LOOP ( 'NONE', ( #87, #80, #185 ) ) ;
#100 = LINE ( 'NONE', #8, #112 ) ;
#101 = VECTOR ( 'NONE', #189, 1000.000000000000000 ) ;
#102 = VERTEX_POINT ( 'NONE', #91 ) ;
#103 = COLOUR_RGB ( '',0.7921568627450980000, 0.8196078431372548800, 0.9333333333333333500 ) ;
#104 = CARTESIAN_POINT ( 'NONE',  ( 0.0000000000000000000, 1.665556244190685800E-035, 3.403581375530849300E-016 ) ) ;
#105 = FILL_AREA_STYLE ('',( #161 ) ) ;
#106 = CIRCLE ( 'NONE', #154, 5.556250000000016300 ) ;
#107 = EDGE_CURVE ( 'NONE', #209, #28, #151, .T. ) ;
#108 = DIRECTION ( 'NONE',  ( 0.0000000000000000000, 0.7071067811865470200, -0.7071067811865481300 ) ) ;
#109 = PRESENTATION_STYLE_ASSIGNMENT (( #40 ) ) ;
#110 = CARTESIAN_POINT ( 'NONE',  ( 0.0000000000000000000, 1.665556244190685600E-035, 3.403581375530849300E-016 ) ) ;
#111 = ADVANCED_BREP_SHAPE_REPRESENTATION ( '03-0364', ( #44, #143 ), #165 ) ;
#112 = VECTOR ( 'NONE', #108, 1000.000000000000000 ) ;
#113 = STYLED_ITEM ( 'NONE', ( #141 ), #44 ) ;
#114 = EDGE_LOOP ( 'NONE', ( #65, #13, #61, #156 ) ) ;
#115 = UNCERTAINTY_MEASURE_WITH_UNIT (LENGTH_MEASURE( 1.000000000000000100E-005 ), #54, 'distance_accuracy_value', 'NONE');
#116 = CARTESIAN_POINT ( 'NONE',  ( 0.0000000000000000000, -5.437946598436287500E-020, -1.111250000000005000 ) ) ;
#117 = ADVANCED_FACE ( 'NONE', ( #77 ), #118, .T. ) ;
#118 = CONICAL_SURFACE ( 'NONE', #46, 4.445000000000003800, 0.7853981633974475000 ) ;
#119 = EDGE_CURVE ( 'NONE', #90, #186, #191, .T. ) ;
#120 = PRODUCT ( '03-0364', '03-0364', '', ( #134 ) ) ;
#121 =( NAMED_UNIT ( * ) PLANE_ANGLE_UNIT ( ) SI_UNIT ( $, .RADIAN. ) );
#122 =( NAMED_UNIT ( * ) SI_UNIT ( $, .STERADIAN. ) SOLID_ANGLE_UNIT ( ) );
#123 = ORIENTED_EDGE ( 'NONE', *, *, #10, .T. ) ;
#124 = CARTESIAN_POINT ( 'NONE',  ( 0.0000000000000000000, 0.0000000000000000000, 0.0000000000000000000 ) ) ;
#125 = APPLICATION_CONTEXT ( 'automotive_design' ) ;
#126 = CARTESIAN_POINT ( 'NONE',  ( 0.0000000000000000000, -5.437946598436287500E-020, -1.111250000000005000 ) ) ;
#127 = CARTESIAN_POINT ( 'NONE',  ( 0.0000000000000000000, -6.948899285375092200E-018, -142.0014741059355300 ) ) ;
#128 = DIRECTION ( 'NONE',  ( -0.0000000000000000000, 4.893540246061878800E-020, 1.000000000000000000 ) ) ;
#129 = EDGE_CURVE ( 'NONE', #90, #213, #60, .T. ) ;
#130 = UNCERTAINTY_MEASURE_WITH_UNIT (LENGTH_MEASURE( 1.000000000000000100E-005 ), #183, 'distance_accuracy_value', 'NONE');
#131 = ORIENTED_EDGE ( 'NONE', *, *, #23, .F. ) ;
#132 = FACE_OUTER_BOUND ( 'NONE', #152, .T. ) ;
#133 = COLOUR_RGB ( '',0.7921568627450980000, 0.8196078431372548800, 0.9333333333333333500 ) ;
#134 = PRODUCT_CONTEXT ( 'NONE', #2, 'mechanical' ) ;
#135 = PRODUCT_RELATED_PRODUCT_CATEGORY ( 'part', '', ( #120 ) ) ;
#136 = CARTESIAN_POINT ( 'NONE',  ( 0.0000000000000000000, -5.556250000000007500, -1.111250000000005000 ) ) ;
#137 = SURFACE_SIDE_STYLE ('',( #199 ) ) ;
#138 = CARTESIAN_POINT ( 'NONE',  ( 0.0000000000000000000, 1.665556244190685600E-035, 3.403581375530849300E-016 ) ) ;
#139 = CARTESIAN_POINT ( 'NONE',  ( 0.0000000000000000000, -6.836275723748444200E-018, -139.6999999999999900 ) ) ;
#140 = DIRECTION ( 'NONE',  ( -0.0000000000000000000, 4.893540246061878800E-020, 1.000000000000000000 ) ) ;
#141 = PRESENTATION_STYLE_ASSIGNMENT (( #168 ) ) ;
#142 = CIRCLE ( 'NONE', #36, 5.556250000000016300 ) ;
#143 = AXIS2_PLACEMENT_3D ( 'NONE', #55, #204, #19 ) ;
#144 = ORIENTED_EDGE ( 'NONE', *, *, #10, .F. ) ;
#145 = AXIS2_PLACEMENT_3D ( 'NONE', #208, #128, #93 ) ;
#146 = CARTESIAN_POINT ( 'NONE',  ( 0.0000000000000000000, 4.198650317524369800E-017, 857.9985258940644100 ) ) ;
#147 = ORIENTED_EDGE ( 'NONE', *, *, #78, .T. ) ;
#148 = UNCERTAINTY_MEASURE_WITH_UNIT (LENGTH_MEASURE( 1.000000000000000100E-005 ), #96, 'distance_accuracy_value', 'NONE');
#149 = DIRECTION ( 'NONE',  ( 0.0000000000000000000, 1.000000000000000000, -4.893540246062392800E-020 ) ) ;
#150 = AXIS2_PLACEMENT_3D ( 'NONE', #110, #179, #149 ) ;
#151 = CIRCLE ( 'NONE', #82, 4.445000000000003800 ) ;
#152 = EDGE_LOOP ( 'NONE', ( #98, #18, #123, #9 ) ) ;
#153 = PLANE ( 'NONE',  #33 ) ;
#154 = AXIS2_PLACEMENT_3D ( 'NONE', #139, #158, #190 ) ;
#155 = ADVANCED_FACE ( 'NONE', ( #35 ), #64, .T. ) ;
#156 = ORIENTED_EDGE ( 'NONE', *, *, #29, .T. ) ;
#157 = AXIS2_PLACEMENT_3D ( 'NONE', #43, #5, #159 ) ;
#158 = DIRECTION ( 'NONE',  ( -0.0000000000000000000, 4.893540246061878800E-020, 1.000000000000000000 ) ) ;
#159 = DIRECTION ( 'NONE',  ( 0.0000000000000000000, -1.000000000000000000, 4.893540246061878200E-020 ) ) ;
#160 = CYLINDRICAL_SURFACE ( 'NONE', #207, 5.556250000000007500 ) ;
#161 = FILL_AREA_STYLE_COLOUR ( '', #103 ) ;
#162 = CLOSED_SHELL ( 'NONE', ( #117, #172, #17, #67, #37, #155, #52 ) ) ;
#163 = SHAPE_DEFINITION_REPRESENTATION ( #97, #111 ) ;
#164 = PRODUCT_DEFINITION_FORMATION_WITH_SPECIFIED_SOURCE ( 'ANY', '', #120, .NOT_KNOWN. ) ;
#165 =( GEOMETRIC_REPRESENTATION_CONTEXT ( 3 ) GLOBAL_UNCERTAINTY_ASSIGNED_CONTEXT ( ( #115 ) ) GLOBAL_UNIT_ASSIGNED_CONTEXT ( ( #54, #121, #177 ) ) REPRESENTATION_CONTEXT ( 'NONE', 'WORKASPACE' ) );
#166 = ORIENTED_EDGE ( 'NONE', *, *, #38, .T. ) ;
#167 = VECTOR ( 'NONE', #76, 1000.000000000000000 ) ;
#168 = SURFACE_STYLE_USAGE ( .BOTH. , #49 ) ;
#169 = FILL_AREA_STYLE ('',( #84 ) ) ;
#170 = ORIENTED_EDGE ( 'NONE', *, *, #119, .F. ) ;
#171 = CONICAL_SURFACE ( 'NONE', #68, 4.445000000000003800, 0.7853981633974475000 ) ;
#172 = ADVANCED_FACE ( 'NONE', ( #30 ), #160, .T. ) ;
#173 = PRODUCT_DEFINITION_CONTEXT ( 'detailed design', #125, 'design' ) ;
#174 = PRESENTATION_LAYER_ASSIGNMENT (  '', '', ( #198 ) ) ;
#175 = DIRECTION ( 'NONE',  ( -0.0000000000000000000, 4.893540246061878800E-020, 1.000000000000000000 ) ) ;
#176 = EDGE_LOOP ( 'NONE', ( #147, #39, #47, #15 ) ) ;
#177 =( NAMED_UNIT ( * ) SI_UNIT ( $, .STERADIAN. ) SOLID_ANGLE_UNIT ( ) );
#178 = CIRCLE ( 'NONE', #211, 5.556250000000007500 ) ;
#179 = DIRECTION ( 'NONE',  ( -0.0000000000000000000, 4.893540246061878800E-020, 1.000000000000000000 ) ) ;
#180 = SURFACE_STYLE_FILL_AREA ( #169 ) ;
#181 = AXIS2_PLACEMENT_3D ( 'NONE', #146, #194, #95 ) ;
#182 =( NAMED_UNIT ( * ) PLANE_ANGLE_UNIT ( ) SI_UNIT ( $, .RADIAN. ) );
#183 =( LENGTH_UNIT ( ) NAMED_UNIT ( * ) SI_UNIT ( .MILLI., .METRE. ) );
#184 = EDGE_CURVE ( 'NONE', #186, #213, #142, .T. ) ;
#185 = ORIENTED_EDGE ( 'NONE', *, *, #78, .F. ) ;
#186 = VERTEX_POINT ( 'NONE', #187 ) ;
#187 = CARTESIAN_POINT ( 'NONE',  ( 6.804443777762497900E-016, 5.556250000000014600, -139.6999999999999900 ) ) ;
#188 = CARTESIAN_POINT ( 'NONE',  ( 6.804443777762491000E-016, 5.556250000000007500, -2.718973299218134900E-019 ) ) ;
#189 = DIRECTION ( 'NONE',  ( 1.131426112287698800E-016, 0.9238795325112855200, 0.3826834323650926700 ) ) ;
#190 = DIRECTION ( 'NONE',  ( 0.0000000000000000000, -1.000000000000000000, 0.0000000000000000000 ) ) ;
#191 = LINE ( 'NONE', #127, #101 ) ;
#192 = ORIENTED_EDGE ( 'NONE', *, *, #107, .T. ) ;
#193 = ORIENTED_EDGE ( 'NONE', *, *, #184, .F. ) ;
#194 = DIRECTION ( 'NONE',  ( -0.0000000000000000000, 4.893540246061878800E-020, 1.000000000000000000 ) ) ;
#195 = ORIENTED_EDGE ( 'NONE', *, *, #88, .F. ) ;
#196 = ORIENTED_EDGE ( 'NONE', *, *, #23, .T. ) ;
#197 = DIRECTION ( 'NONE',  ( 0.0000000000000000000, 1.000000000000000000, -4.893540246062392800E-020 ) ) ;
#198 = STYLED_ITEM ( 'NONE', ( #109 ), #111 ) ;
#199 = SURFACE_STYLE_FILL_AREA ( #105 ) ;
#200 = VERTEX_POINT ( 'NONE', #136 ) ;
#201 = AXIS2_PLACEMENT_3D ( 'NONE', #116, #14, #32 ) ;
#202 = DIRECTION ( 'NONE',  ( 0.0000000000000000000, 1.000000000000000000, -4.893540246062392800E-020 ) ) ;
#203 = APPLICATION_PROTOCOL_DEFINITION ( 'draft international standard', 'automotive_design', 1998, #125 ) ;
#204 = DIRECTION ( 'NONE',  ( 0.0000000000000000000, 0.0000000000000000000, 1.000000000000000000 ) ) ;
#205 = DIRECTION ( 'NONE',  ( -0.0000000000000000000, 4.893540246061878800E-020, 1.000000000000000000 ) ) ;
#206 = CARTESIAN_POINT ( 'NONE',  ( 0.0000000000000000000, -6.836275723748444200E-018, -139.6999999999999900 ) ) ;
#207 = AXIS2_PLACEMENT_3D ( 'NONE', #124, #21, #26 ) ;
#208 = CARTESIAN_POINT ( 'NONE',  ( 0.0000000000000000000, 4.198650317524369800E-017, 857.9985258940644100 ) ) ;
#209 = VERTEX_POINT ( 'NONE', #72 ) ;
#210 = LINE ( 'NONE', #188, #81 ) ;
#211 = AXIS2_PLACEMENT_3D ( 'NONE', #126, #74, #42 ) ;
#212 =( NAMED_UNIT ( * ) SI_UNIT ( $, .STERADIAN. ) SOLID_ANGLE_UNIT ( ) );
#213 = VERTEX_POINT ( 'NONE', #73 ) ;
#214 = VECTOR ( 'NONE', #51, 1000.000000000000000 ) ;
ENDSEC;
END-ISO-10303-21;
