ISO-10303-21;
HEADER;
FILE_DESCRIPTION (( 'STEP AP214' ),
    '1' );
FILE_NAME ('03-0365.STEP',
    '2020-07-23T07:13:44',
    ( '' ),
    ( '' ),
    'SwSTEP 2.0',
    'SolidWorks 2014',
    '' );
FILE_SCHEMA (( 'AUTOMOTIVE_DESIGN' ));
ENDSEC;

DATA;
#1 = DIRECTION ( 'NONE',  ( -0.0000000000000000000, -1.302855942005287000E-020, 1.000000000000000000 ) ) ;
#2 = DIRECTION ( 'NONE',  ( 0.0000000000000000000, 1.000000000000000000, 1.302855942005342700E-020 ) ) ;
#3 = APPLICATION_CONTEXT ( 'automotive_design' ) ;
#4 = DIRECTION ( 'NONE',  ( 0.0000000000000000000, 0.7071067811865445800, -0.7071067811865504600 ) ) ;
#5 = VECTOR ( 'NONE', #202, 1000.000000000000100 ) ;
#6 =( GEOMETRIC_REPRESENTATION_CONTEXT ( 3 ) GLOBAL_UNCERTAINTY_ASSIGNED_CONTEXT ( ( #166 ) ) GLOBAL_UNIT_ASSIGNED_CONTEXT ( ( #128, #37, #96 ) ) REPRESENTATION_CONTEXT ( 'NONE', 'WORKASPACE' ) );
#7 = DIRECTION ( 'NONE',  ( -0.0000000000000000000, -1.302855942005287000E-020, 1.000000000000000000 ) ) ;
#8 = ADVANCED_FACE ( 'NONE', ( #104 ), #149, .T. ) ;
#9 = ORIENTED_EDGE ( 'NONE', *, *, #209, .F. ) ;
#10 = CIRCLE ( 'NONE', #57, 5.754687500000008200 ) ;
#11 = CIRCLE ( 'NONE', #41, 4.603749999999962500 ) ;
#12 = COLOUR_RGB ( '',0.7921568627450980000, 0.8196078431372548800, 0.9333333333333333500 ) ;
#13 = CARTESIAN_POINT ( 'NONE',  ( 0.0000000000000000000, -1.113604821176481800E-017, 854.7413303902810600 ) ) ;
#14 = ORIENTED_EDGE ( 'NONE', *, *, #192, .F. ) ;
#15 = CARTESIAN_POINT ( 'NONE',  ( 7.047459626968293800E-016, 5.754687500000008200, -1.150937500000055200 ) ) ;
#16 = PRODUCT_DEFINITION ( 'UNKNOWN', '', #110, #123 ) ;
#17 = CIRCLE ( 'NONE', #30, 5.754687500000017100 ) ;
#18 = AXIS2_PLACEMENT_3D ( 'NONE', #101, #7, #119 ) ;
#19 = ORIENTED_EDGE ( 'NONE', *, *, #117, .F. ) ;
#20 = DIRECTION ( 'NONE',  ( -0.0000000000000000000, -1.302855942005287000E-020, 1.000000000000000000 ) ) ;
#21 = CARTESIAN_POINT ( 'NONE',  ( 0.0000000000000000000, 0.0000000000000000000, 0.0000000000000000000 ) ) ;
#22 = AXIS2_PLACEMENT_3D ( 'NONE', #169, #116, #132 ) ;
#23 = EDGE_CURVE ( 'NONE', #25, #48, #17, .T. ) ;
#24 = VECTOR ( 'NONE', #204, 1000.000000000000000 ) ;
#25 = VERTEX_POINT ( 'NONE', #84 ) ;
#26 = DIRECTION ( 'NONE',  ( 0.0000000000000000000, 1.302855942005287000E-020, -1.000000000000000000 ) ) ;
#27 = DIRECTION ( 'NONE',  ( 0.0000000000000000000, -1.000000000000000000, 0.0000000000000000000 ) ) ;
#28 = ORIENTED_EDGE ( 'NONE', *, *, #192, .T. ) ;
#29 = VECTOR ( 'NONE', #4, 1000.000000000000000 ) ;
#30 = AXIS2_PLACEMENT_3D ( 'NONE', #121, #186, #27 ) ;
#31 = DIRECTION ( 'NONE',  ( -0.0000000000000000000, -1.302855942005287000E-020, 1.000000000000000000 ) ) ;
#32 = ORIENTED_EDGE ( 'NONE', *, *, #118, .T. ) ;
#33 = FACE_OUTER_BOUND ( 'NONE', #113, .T. ) ;
#34 = EDGE_CURVE ( 'NONE', #25, #172, #94, .T. ) ;
#35 = COLOUR_RGB ( '',0.7921568627450980000, 0.8196078431372548800, 0.9333333333333333500 ) ;
#36 = DIRECTION ( 'NONE',  ( 0.0000000000000000000, 1.000000000000000000, 0.0000000000000000000 ) ) ;
#37 =( NAMED_UNIT ( * ) PLANE_ANGLE_UNIT ( ) SI_UNIT ( $, .RADIAN. ) );
#38 = DIRECTION ( 'NONE',  ( 1.000000000000000000, 0.0000000000000000000, 0.0000000000000000000 ) ) ;
#39 = EDGE_LOOP ( 'NONE', ( #14, #148, #53, #91 ) ) ;
#40 = CARTESIAN_POINT ( 'NONE',  ( 0.0000000000000000000, 4.603749999999962500, 3.523954739348254700E-016 ) ) ;
#41 = AXIS2_PLACEMENT_3D ( 'NONE', #164, #31, #58 ) ;
#42 = AXIS2_PLACEMENT_3D ( 'NONE', #74, #197, #60 ) ;
#43 = AXIS2_PLACEMENT_3D ( 'NONE', #21, #1, #111 ) ;
#44 = ADVANCED_FACE ( 'NONE', ( #189 ), #54, .T. ) ;
#45 = EDGE_LOOP ( 'NONE', ( #69, #145, #32, #122 ) ) ;
#46 = DIRECTION ( 'NONE',  ( 8.659560562354897100E-017, -0.7071067811865445800, -0.7071067811865504600 ) ) ;
#47 = EDGE_CURVE ( 'NONE', #168, #25, #102, .T. ) ;
#48 = VERTEX_POINT ( 'NONE', #85 ) ;
#49 = DIRECTION ( 'NONE',  ( -0.0000000000000000000, -1.302855942005287000E-020, 1.000000000000000000 ) ) ;
#50 = ORIENTED_EDGE ( 'NONE', *, *, #47, .T. ) ;
#51 = DIRECTION ( 'NONE',  ( 0.0000000000000000000, 0.0000000000000000000, 1.000000000000000000 ) ) ;
#52 = DIRECTION ( 'NONE',  ( 0.0000000000000000000, 1.000000000000000000, 1.302855942005287000E-020 ) ) ;
#53 = ORIENTED_EDGE ( 'NONE', *, *, #34, .T. ) ;
#54 = CONICAL_SURFACE ( 'NONE', #83, 4.603749999999962500, 0.7853981633974441700 ) ;
#55 = CARTESIAN_POINT ( 'NONE',  ( 5.637967701574581200E-016, -4.603749999999962500, 3.522755134739653400E-016 ) ) ;
#56 = ORIENTED_EDGE ( 'NONE', *, *, #47, .F. ) ;
#57 = AXIS2_PLACEMENT_3D ( 'NONE', #75, #167, #36 ) ;
#58 = DIRECTION ( 'NONE',  ( 0.0000000000000000000, 1.000000000000000000, 1.302855942005342700E-020 ) ) ;
#59 = VERTEX_POINT ( 'NONE', #15 ) ;
#60 = DIRECTION ( 'NONE',  ( 0.0000000000000000000, 1.000000000000000000, 1.302855942005342700E-020 ) ) ;
#61 = CARTESIAN_POINT ( 'NONE',  ( 0.0000000000000000000, 1.892511208288051400E-018, -145.2586696097189400 ) ) ;
#62 =( NAMED_UNIT ( * ) SI_UNIT ( $, .STERADIAN. ) SOLID_ANGLE_UNIT ( ) );
#63 = DIRECTION ( 'NONE',  ( 0.0000000000000000000, 1.302855942005287000E-020, -1.000000000000000000 ) ) ;
#64 = ORIENTED_EDGE ( 'NONE', *, *, #23, .T. ) ;
#65 = FACE_OUTER_BOUND ( 'NONE', #39, .T. ) ;
#66 = DIRECTION ( 'NONE',  ( -0.0000000000000000000, -1.302855942005287000E-020, 1.000000000000000000 ) ) ;
#67 = PRESENTATION_LAYER_ASSIGNMENT (  '', '', ( #171 ) ) ;
#68 = CARTESIAN_POINT ( 'NONE',  ( 0.0000000000000000000, -4.590423915521378900E-036, 3.523354937043954000E-016 ) ) ;
#69 = ORIENTED_EDGE ( 'NONE', *, *, #90, .F. ) ;
#70 = CIRCLE ( 'NONE', #187, 4.603749999999962500 ) ;
#71 = EDGE_CURVE ( 'NONE', #124, #161, #11, .T. ) ;
#72 = ORIENTED_EDGE ( 'NONE', *, *, #117, .T. ) ;
#73 = CONICAL_SURFACE ( 'NONE', #42, 4.603749999999962500, 0.7853981633974441700 ) ;
#74 = CARTESIAN_POINT ( 'NONE',  ( 0.0000000000000000000, -4.590423915521378900E-036, 3.523354937043954000E-016 ) ) ;
#75 = CARTESIAN_POINT ( 'NONE',  ( 0.0000000000000000000, 1.499505760751781700E-020, -1.150937500000055200 ) ) ;
#76 = APPLICATION_PROTOCOL_DEFINITION ( 'draft international standard', 'automotive_design', 1998, #115 ) ;
#77 = ORIENTED_EDGE ( 'NONE', *, *, #209, .T. ) ;
#78 = LINE ( 'NONE', #98, #29 ) ;
#79 = CARTESIAN_POINT ( 'NONE',  ( 0.0000000000000000000, 1.892511208288051400E-018, -145.2586696097189400 ) ) ;
#80 = DIRECTION ( 'NONE',  ( -0.0000000000000000000, -1.302855942005287000E-020, 1.000000000000000000 ) ) ;
#81 = MANIFOLD_SOLID_BREP ( '¸ðµû±â1', #182 ) ;
#82 = PRESENTATION_STYLE_ASSIGNMENT (( #193 ) ) ;
#83 = AXIS2_PLACEMENT_3D ( 'NONE', #68, #26, #137 ) ;
#84 = CARTESIAN_POINT ( 'NONE',  ( 0.0000000000000000000, -5.754687500000016200, -142.8750000000000000 ) ) ;
#85 = CARTESIAN_POINT ( 'NONE',  ( 7.047459626968304600E-016, 5.754687500000016200, -142.8750000000000000 ) ) ;
#86 = CYLINDRICAL_SURFACE ( 'NONE', #157, 5.754687500000008200 ) ;
#87 =( NAMED_UNIT ( * ) PLANE_ANGLE_UNIT ( ) SI_UNIT ( $, .RADIAN. ) );
#88 = ORIENTED_EDGE ( 'NONE', *, *, #71, .T. ) ;
#89 =( NAMED_UNIT ( * ) SI_UNIT ( $, .STERADIAN. ) SOLID_ANGLE_UNIT ( ) );
#90 = EDGE_CURVE ( 'NONE', #161, #172, #114, .T. ) ;
#91 = ORIENTED_EDGE ( 'NONE', *, *, #146, .T. ) ;
#92 = UNCERTAINTY_MEASURE_WITH_UNIT (LENGTH_MEASURE( 1.000000000000000100E-005 ), #191, 'distance_accuracy_value', 'NONE');
#93 = EDGE_CURVE ( 'NONE', #48, #25, #108, .T. ) ;
#94 = LINE ( 'NONE', #100, #24 ) ;
#95 = ORIENTED_EDGE ( 'NONE', *, *, #93, .F. ) ;
#96 =( NAMED_UNIT ( * ) SI_UNIT ( $, .STERADIAN. ) SOLID_ANGLE_UNIT ( ) );
#97 = DIRECTION ( 'NONE',  ( -0.0000000000000000000, -1.302855942005287000E-020, 1.000000000000000000 ) ) ;
#98 = CARTESIAN_POINT ( 'NONE',  ( 0.0000000000000000000, 4.603749999999962500, 3.523954739348254700E-016 ) ) ;
#99 = LINE ( 'NONE', #127, #165 ) ;
#100 = CARTESIAN_POINT ( 'NONE',  ( 0.0000000000000000000, -5.754687500000008200, -7.497528803758560200E-020 ) ) ;
#101 = CARTESIAN_POINT ( 'NONE',  ( 0.0000000000000000000, -1.113604821176481800E-017, 854.7413303902810600 ) ) ;
#102 = LINE ( 'NONE', #79, #5 ) ;
#103 = CONICAL_SURFACE ( 'NONE', #159, 2414.213562373075100, 1.178097245096169500 ) ;
#104 = FACE_OUTER_BOUND ( 'NONE', #150, .T. ) ;
#105 = MECHANICAL_DESIGN_GEOMETRIC_PRESENTATION_REPRESENTATION (  '', ( #147 ), #144 ) ;
#106 = CARTESIAN_POINT ( 'NONE',  ( 0.0000000000000000000, 1.861455427140053600E-018, -142.8750000000000000 ) ) ;
#107 = SURFACE_STYLE_USAGE ( .BOTH. , #151 ) ;
#108 = CIRCLE ( 'NONE', #120, 5.754687500000017100 ) ;
#109 = CARTESIAN_POINT ( 'NONE',  ( 0.0000000000000000000, -5.754687500000008200, -1.150937500000055200 ) ) ;
#110 = PRODUCT_DEFINITION_FORMATION_WITH_SPECIFIED_SOURCE ( 'ANY', '', #142, .NOT_KNOWN. ) ;
#111 = DIRECTION ( 'NONE',  ( 0.0000000000000000000, -1.000000000000000000, -1.302855942005287000E-020 ) ) ;
#112 = CARTESIAN_POINT ( 'NONE',  ( 0.0000000000000000000, 0.0000000000000000000, 0.0000000000000000000 ) ) ;
#113 = EDGE_LOOP ( 'NONE', ( #56, #77, #138 ) ) ;
#114 = LINE ( 'NONE', #55, #211 ) ;
#115 = APPLICATION_CONTEXT ( 'automotive_design' ) ;
#116 = DIRECTION ( 'NONE',  ( 0.0000000000000000000, 1.302855942005287000E-020, -1.000000000000000000 ) ) ;
#117 = EDGE_CURVE ( 'NONE', #59, #172, #173, .T. ) ;
#118 = EDGE_CURVE ( 'NONE', #124, #59, #78, .T. ) ;
#119 = DIRECTION ( 'NONE',  ( 0.0000000000000000000, -1.000000000000000000, 0.0000000000000000000 ) ) ;
#120 = AXIS2_PLACEMENT_3D ( 'NONE', #106, #66, #156 ) ;
#121 = CARTESIAN_POINT ( 'NONE',  ( 0.0000000000000000000, 1.861455427140053600E-018, -142.8750000000000000 ) ) ;
#122 = ORIENTED_EDGE ( 'NONE', *, *, #146, .F. ) ;
#123 = PRODUCT_DEFINITION_CONTEXT ( 'detailed design', #115, 'design' ) ;
#124 = VERTEX_POINT ( 'NONE', #40 ) ;
#125 = FACE_OUTER_BOUND ( 'NONE', #179, .T. ) ;
#126 = AXIS2_PLACEMENT_3D ( 'NONE', #133, #51, #38 ) ;
#127 = CARTESIAN_POINT ( 'NONE',  ( 0.0000000000000000000, 1.892511208288051400E-018, -145.2586696097189400 ) ) ;
#128 =( LENGTH_UNIT ( ) NAMED_UNIT ( * ) SI_UNIT ( .MILLI., .METRE. ) );
#129 =( LENGTH_UNIT ( ) NAMED_UNIT ( * ) SI_UNIT ( .MILLI., .METRE. ) );
#130 = PRODUCT_CONTEXT ( 'NONE', #3, 'mechanical' ) ;
#131 = PRODUCT_DEFINITION_SHAPE ( 'NONE', 'NONE',  #16 ) ;
#132 = DIRECTION ( 'NONE',  ( 0.0000000000000000000, 1.000000000000000000, 0.0000000000000000000 ) ) ;
#133 = CARTESIAN_POINT ( 'NONE',  ( 0.0000000000000000000, 0.0000000000000000000, 0.0000000000000000000 ) ) ;
#134 = SURFACE_STYLE_FILL_AREA ( #175 ) ;
#135 = SURFACE_STYLE_FILL_AREA ( #210 ) ;
#136 = ORIENTED_EDGE ( 'NONE', *, *, #118, .F. ) ;
#137 = DIRECTION ( 'NONE',  ( 0.0000000000000000000, 1.000000000000000000, 1.302855942005342700E-020 ) ) ;
#138 = ORIENTED_EDGE ( 'NONE', *, *, #23, .F. ) ;
#139 = ADVANCED_FACE ( 'NONE', ( #190 ), #200, .F. ) ;
#140 = UNCERTAINTY_MEASURE_WITH_UNIT (LENGTH_MEASURE( 1.000000000000000100E-005 ), #129, 'distance_accuracy_value', 'NONE');
#141 =( GEOMETRIC_REPRESENTATION_CONTEXT ( 3 ) GLOBAL_UNCERTAINTY_ASSIGNED_CONTEXT ( ( #140 ) ) GLOBAL_UNIT_ASSIGNED_CONTEXT ( ( #129, #199, #62 ) ) REPRESENTATION_CONTEXT ( 'NONE', 'WORKASPACE' ) );
#142 = PRODUCT ( '03-0365', '03-0365', '', ( #130 ) ) ;
#143 = ADVANCED_FACE ( 'NONE', ( #33 ), #103, .T. ) ;
#144 =( GEOMETRIC_REPRESENTATION_CONTEXT ( 3 ) GLOBAL_UNCERTAINTY_ASSIGNED_CONTEXT ( ( #92 ) ) GLOBAL_UNIT_ASSIGNED_CONTEXT ( ( #191, #87, #89 ) ) REPRESENTATION_CONTEXT ( 'NONE', 'WORKASPACE' ) );
#145 = ORIENTED_EDGE ( 'NONE', *, *, #71, .F. ) ;
#146 = EDGE_CURVE ( 'NONE', #172, #59, #10, .T. ) ;
#147 = STYLED_ITEM ( 'NONE', ( #82 ), #81 ) ;
#148 = ORIENTED_EDGE ( 'NONE', *, *, #93, .T. ) ;
#149 = CONICAL_SURFACE ( 'NONE', #18, 2414.213562373075100, 1.178097245096169500 ) ;
#150 = EDGE_LOOP ( 'NONE', ( #9, #50, #95 ) ) ;
#151 = SURFACE_SIDE_STYLE ('',( #135 ) ) ;
#152 = EDGE_CURVE ( 'NONE', #161, #124, #70, .T. ) ;
#153 = APPLICATION_PROTOCOL_DEFINITION ( 'draft international standard', 'automotive_design', 1998, #3 ) ;
#154 = CARTESIAN_POINT ( 'NONE',  ( 0.0000000000000000000, 5.754687499999999300, 3.524104689924329900E-016 ) ) ;
#155 = VECTOR ( 'NONE', #20, 1000.000000000000000 ) ;
#156 = DIRECTION ( 'NONE',  ( 0.0000000000000000000, -1.000000000000000000, 0.0000000000000000000 ) ) ;
#157 = AXIS2_PLACEMENT_3D ( 'NONE', #112, #49, #198 ) ;
#158 = ORIENTED_EDGE ( 'NONE', *, *, #34, .F. ) ;
#159 = AXIS2_PLACEMENT_3D ( 'NONE', #13, #80, #183 ) ;
#160 = ADVANCED_FACE ( 'NONE', ( #65 ), #86, .T. ) ;
#161 = VERTEX_POINT ( 'NONE', #180 ) ;
#162 = FILL_AREA_STYLE_COLOUR ( '', #12 ) ;
#163 = ADVANCED_BREP_SHAPE_REPRESENTATION ( '03-0365', ( #81, #126 ), #6 ) ;
#164 = CARTESIAN_POINT ( 'NONE',  ( 0.0000000000000000000, -4.590423915521378900E-036, 3.523354937043954000E-016 ) ) ;
#165 = VECTOR ( 'NONE', #213, 1000.000000000000100 ) ;
#166 = UNCERTAINTY_MEASURE_WITH_UNIT (LENGTH_MEASURE( 1.000000000000000100E-005 ), #128, 'distance_accuracy_value', 'NONE');
#167 = DIRECTION ( 'NONE',  ( 0.0000000000000000000, 1.302855942005287000E-020, -1.000000000000000000 ) ) ;
#168 = VERTEX_POINT ( 'NONE', #61 ) ;
#169 = CARTESIAN_POINT ( 'NONE',  ( 0.0000000000000000000, 1.499505760751781700E-020, -1.150937500000055200 ) ) ;
#170 = FILL_AREA_STYLE_COLOUR ( '', #35 ) ;
#171 = STYLED_ITEM ( 'NONE', ( #201 ), #163 ) ;
#172 = VERTEX_POINT ( 'NONE', #109 ) ;
#173 = CIRCLE ( 'NONE', #22, 5.754687500000008200 ) ;
#174 = SURFACE_SIDE_STYLE ('',( #134 ) ) ;
#175 = FILL_AREA_STYLE ('',( #162 ) ) ;
#176 = PRESENTATION_LAYER_ASSIGNMENT (  '', '', ( #147 ) ) ;
#177 = ORIENTED_EDGE ( 'NONE', *, *, #90, .T. ) ;
#178 = LINE ( 'NONE', #181, #155 ) ;
#179 = EDGE_LOOP ( 'NONE', ( #64, #28, #72, #158 ) ) ;
#180 = CARTESIAN_POINT ( 'NONE',  ( 6.342713664271437500E-016, -4.603749999999962500, 3.522755134739653400E-016 ) ) ;
#181 = CARTESIAN_POINT ( 'NONE',  ( 7.047459626968293800E-016, 5.754687500000008200, 7.497528803758560200E-020 ) ) ;
#182 = CLOSED_SHELL ( 'NONE', ( #188, #208, #143, #139, #8, #160, #44 ) ) ;
#183 = DIRECTION ( 'NONE',  ( 0.0000000000000000000, -1.000000000000000000, 0.0000000000000000000 ) ) ;
#184 = ORIENTED_EDGE ( 'NONE', *, *, #152, .T. ) ;
#185 = EDGE_LOOP ( 'NONE', ( #88, #184 ) ) ;
#186 = DIRECTION ( 'NONE',  ( -0.0000000000000000000, -1.302855942005287000E-020, 1.000000000000000000 ) ) ;
#187 = AXIS2_PLACEMENT_3D ( 'NONE', #212, #97, #2 ) ;
#188 = ADVANCED_FACE ( 'NONE', ( #196 ), #73, .T. ) ;
#189 = FACE_OUTER_BOUND ( 'NONE', #45, .T. ) ;
#190 = FACE_OUTER_BOUND ( 'NONE', #185, .T. ) ;
#191 =( LENGTH_UNIT ( ) NAMED_UNIT ( * ) SI_UNIT ( .MILLI., .METRE. ) );
#192 = EDGE_CURVE ( 'NONE', #48, #59, #178, .T. ) ;
#193 = SURFACE_STYLE_USAGE ( .BOTH. , #174 ) ;
#194 = MECHANICAL_DESIGN_GEOMETRIC_PRESENTATION_REPRESENTATION (  '', ( #171 ), #141 ) ;
#195 = EDGE_LOOP ( 'NONE', ( #205, #177, #19, #136 ) ) ;
#196 = FACE_OUTER_BOUND ( 'NONE', #195, .T. ) ;
#197 = DIRECTION ( 'NONE',  ( 0.0000000000000000000, 1.302855942005287000E-020, -1.000000000000000000 ) ) ;
#198 = DIRECTION ( 'NONE',  ( 0.0000000000000000000, -1.000000000000000000, -1.302855942005287000E-020 ) ) ;
#199 =( NAMED_UNIT ( * ) PLANE_ANGLE_UNIT ( ) SI_UNIT ( $, .RADIAN. ) );
#200 = PLANE ( 'NONE',  #203 ) ;
#201 = PRESENTATION_STYLE_ASSIGNMENT (( #107 ) ) ;
#202 = DIRECTION ( 'NONE',  ( 0.0000000000000000000, -0.9238795325112855200, 0.3826834323650925000 ) ) ;
#203 = AXIS2_PLACEMENT_3D ( 'NONE', #154, #63, #52 ) ;
#204 = DIRECTION ( 'NONE',  ( -0.0000000000000000000, -1.302855942005287000E-020, 1.000000000000000000 ) ) ;
#205 = ORIENTED_EDGE ( 'NONE', *, *, #152, .F. ) ;
#206 = CYLINDRICAL_SURFACE ( 'NONE', #43, 5.754687500000008200 ) ;
#207 = SHAPE_DEFINITION_REPRESENTATION ( #131, #163 ) ;
#208 = ADVANCED_FACE ( 'NONE', ( #125 ), #206, .T. ) ;
#209 = EDGE_CURVE ( 'NONE', #168, #48, #99, .T. ) ;
#210 = FILL_AREA_STYLE ('',( #170 ) ) ;
#211 = VECTOR ( 'NONE', #46, 1000.000000000000000 ) ;
#212 = CARTESIAN_POINT ( 'NONE',  ( 0.0000000000000000000, -4.590423915521378900E-036, 3.523354937043954000E-016 ) ) ;
#213 = DIRECTION ( 'NONE',  ( 1.131426112287699000E-016, 0.9238795325112855200, 0.3826834323650925000 ) ) ;
#214 = PRODUCT_RELATED_PRODUCT_CATEGORY ( 'part', '', ( #142 ) ) ;
ENDSEC;
END-ISO-10303-21;
