ISO-10303-21;
HEADER;
FILE_DESCRIPTION (( 'STEP AP214' ),
    '1' );
FILE_NAME ('03-0367.STEP',
    '2020-07-23T07:15:06',
    ( '' ),
    ( '' ),
    'SwSTEP 2.0',
    'SolidWorks 2014',
    '' );
FILE_SCHEMA (( 'AUTOMOTIVE_DESIGN' ));
ENDSEC;

DATA;
#1 = ORIENTED_EDGE ( 'NONE', *, *, #64, .T. ) ;
#2 = CARTESIAN_POINT ( 'NONE',  ( 0.0000000000000000000, -1.269419393054831100E-017, -149.2249999999999900 ) ) ;
#3 = AXIS2_PLACEMENT_3D ( 'NONE', #169, #156, #21 ) ;
#4 = CARTESIAN_POINT ( 'NONE',  ( 0.0000000000000000000, -1.269419393054831100E-017, -149.2249999999999900 ) ) ;
#5 = ORIENTED_EDGE ( 'NONE', *, *, #9, .T. ) ;
#6 = CARTESIAN_POINT ( 'NONE',  ( 0.0000000000000000000, -1.291095101295821700E-017, -151.7730606172857800 ) ) ;
#7 = DIRECTION ( 'NONE',  ( 0.0000000000000000000, -1.000000000000000000, 8.506747482357723600E-020 ) ) ;
#8 = FILL_AREA_STYLE_COLOUR ( '', #174 ) ;
#9 = EDGE_CURVE ( 'NONE', #71, #132, #210, .T. ) ;
#10 =( LENGTH_UNIT ( ) NAMED_UNIT ( * ) SI_UNIT ( .MILLI., .METRE. ) );
#11 = CIRCLE ( 'NONE', #111, 6.151562500000018500 ) ;
#12 = ORIENTED_EDGE ( 'NONE', *, *, #122, .T. ) ;
#13 = EDGE_CURVE ( 'NONE', #82, #68, #158, .T. ) ;
#14 = ORIENTED_EDGE ( 'NONE', *, *, #69, .T. ) ;
#15 = EDGE_LOOP ( 'NONE', ( #89, #123, #102, #66 ) ) ;
#16 = LINE ( 'NONE', #99, #187 ) ;
#17 = EDGE_CURVE ( 'NONE', #79, #71, #160, .T. ) ;
#18 = DIRECTION ( 'NONE',  ( 0.0000000000000000000, -8.506747482357722400E-020, -1.000000000000000000 ) ) ;
#19 = CARTESIAN_POINT ( 'NONE',  ( 6.780142192841898600E-016, -4.921249999999988100, 3.773548535235171700E-016 ) ) ;
#20 = PLANE ( 'NONE',  #214 ) ;
#21 = DIRECTION ( 'NONE',  ( 0.0000000000000000000, -1.000000000000000000, 0.0000000000000000000 ) ) ;
#22 = APPLICATION_PROTOCOL_DEFINITION ( 'draft international standard', 'automotive_design', 1998, #167 ) ;
#23 = EDGE_CURVE ( 'NONE', #68, #33, #213, .T. ) ;
#24 = ORIENTED_EDGE ( 'NONE', *, *, #72, .T. ) ;
#25 = DIRECTION ( 'NONE',  ( -0.0000000000000000000, 8.506747482357722400E-020, 1.000000000000000000 ) ) ;
#26 = DIRECTION ( 'NONE',  ( 0.0000000000000000000, -8.506747482357722400E-020, -1.000000000000000000 ) ) ;
#27 =( NAMED_UNIT ( * ) SI_UNIT ( $, .STERADIAN. ) SOLID_ANGLE_UNIT ( ) );
#28 = EDGE_CURVE ( 'NONE', #193, #82, #105, .T. ) ;
#29 = CONICAL_SURFACE ( 'NONE', #93, 4.921249999999988100, 0.7853981633974399500 ) ;
#30 = FACE_OUTER_BOUND ( 'NONE', #57, .T. ) ;
#31 = STYLED_ITEM ( 'NONE', ( #36 ), #146 ) ;
#32 = AXIS2_PLACEMENT_3D ( 'NONE', #103, #164, #55 ) ;
#33 = VERTEX_POINT ( 'NONE', #85 ) ;
#34 = STYLED_ITEM ( 'NONE', ( #121 ), #177 ) ;
#35 = DIRECTION ( 'NONE',  ( 0.0000000000000000000, -1.000000000000000000, 0.0000000000000000000 ) ) ;
#36 = PRESENTATION_STYLE_ASSIGNMENT (( #152 ) ) ;
#37 = CARTESIAN_POINT ( 'NONE',  ( 0.0000000000000000000, -6.151562500000009600, -1.230312500000041700 ) ) ;
#38 =( GEOMETRIC_REPRESENTATION_CONTEXT ( 3 ) GLOBAL_UNCERTAINTY_ASSIGNED_CONTEXT ( ( #190 ) ) GLOBAL_UNIT_ASSIGNED_CONTEXT ( ( #166, #189, #91 ) ) REPRESENTATION_CONTEXT ( 'NONE', 'WORKASPACE' ) );
#39 = DIRECTION ( 'NONE',  ( 0.0000000000000000000, 1.000000000000000000, -8.506747482358059500E-020 ) ) ;
#40 = COLOUR_RGB ( '',0.7921568627450980000, 0.8196078431372548800, 0.9333333333333333500 ) ;
#41 = DIRECTION ( 'NONE',  ( 0.0000000000000000000, 1.000000000000000000, -8.506747482357722400E-020 ) ) ;
#42 = ORIENTED_EDGE ( 'NONE', *, *, #23, .T. ) ;
#43 = CARTESIAN_POINT ( 'NONE',  ( 0.0000000000000000000, 0.0000000000000000000, 0.0000000000000000000 ) ) ;
#44 =( LENGTH_UNIT ( ) NAMED_UNIT ( * ) SI_UNIT ( .MILLI., .METRE. ) );
#45 = DIRECTION ( 'NONE',  ( 0.0000000000000000000, 0.0000000000000000000, 1.000000000000000000 ) ) ;
#46 = AXIS2_PLACEMENT_3D ( 'NONE', #43, #25, #7 ) ;
#47 = LINE ( 'NONE', #191, #101 ) ;
#48 = DIRECTION ( 'NONE',  ( 1.000000000000000000, 0.0000000000000000000, 0.0000000000000000000 ) ) ;
#49 = PRESENTATION_LAYER_ASSIGNMENT (  '', '', ( #31 ) ) ;
#50 = ORIENTED_EDGE ( 'NONE', *, *, #122, .F. ) ;
#51 = LINE ( 'NONE', #76, #78 ) ;
#52 = DIRECTION ( 'NONE',  ( -0.0000000000000000000, 8.506747482357722400E-020, 1.000000000000000000 ) ) ;
#53 = DIRECTION ( 'NONE',  ( 8.659560562354860100E-017, -0.7071067811865415800, -0.7071067811865535700 ) ) ;
#54 = PRODUCT_DEFINITION_CONTEXT ( 'detailed design', #167, 'design' ) ;
#55 = DIRECTION ( 'NONE',  ( 0.0000000000000000000, 1.000000000000000000, 0.0000000000000000000 ) ) ;
#56 = CARTESIAN_POINT ( 'NONE',  ( 0.0000000000000000000, 6.151562499999999800, 3.764129173249472300E-016 ) ) ;
#57 = EDGE_LOOP ( 'NONE', ( #126, #94, #119, #202 ) ) ;
#58 = DIRECTION ( 'NONE',  ( -0.0000000000000000000, 8.506747482357722400E-020, 1.000000000000000000 ) ) ;
#59 = DIRECTION ( 'NONE',  ( 0.0000000000000000000, -1.000000000000000000, 0.0000000000000000000 ) ) ;
#60 =( NAMED_UNIT ( * ) PLANE_ANGLE_UNIT ( ) SI_UNIT ( $, .RADIAN. ) );
#61 = CARTESIAN_POINT ( 'NONE',  ( 0.0000000000000000000, 3.206501199772990100E-035, 3.769362152130416100E-016 ) ) ;
#62 = VECTOR ( 'NONE', #162, 1000.000000000000000 ) ;
#63 = CARTESIAN_POINT ( 'NONE',  ( 0.0000000000000000000, 7.215652381061901300E-017, 848.2269393827142500 ) ) ;
#64 = EDGE_CURVE ( 'NONE', #71, #33, #16, .T. ) ;
#65 = FACE_OUTER_BOUND ( 'NONE', #110, .T. ) ;
#66 = ORIENTED_EDGE ( 'NONE', *, *, #23, .F. ) ;
#67 = ADVANCED_FACE ( 'NONE', ( #30 ), #97, .T. ) ;
#68 = VERTEX_POINT ( 'NONE', #37 ) ;
#69 = EDGE_CURVE ( 'NONE', #33, #68, #98, .T. ) ;
#70 = FACE_OUTER_BOUND ( 'NONE', #175, .T. ) ;
#71 = VERTEX_POINT ( 'NONE', #130 ) ;
#72 = EDGE_CURVE ( 'NONE', #132, #68, #51, .T. ) ;
#73 = CLOSED_SHELL ( 'NONE', ( #67, #208, #157, #136, #140, #195, #92 ) ) ;
#74 = DIRECTION ( 'NONE',  ( -0.0000000000000000000, 8.506747482357722400E-020, 1.000000000000000000 ) ) ;
#75 = AXIS2_PLACEMENT_3D ( 'NONE', #109, #45, #48 ) ;
#76 = CARTESIAN_POINT ( 'NONE',  ( 0.0000000000000000000, -6.151562500000009600, 5.232978880944126300E-019 ) ) ;
#77 = DIRECTION ( 'NONE',  ( 0.0000000000000000000, 1.000000000000000000, 0.0000000000000000000 ) ) ;
#78 = VECTOR ( 'NONE', #58, 1000.000000000000000 ) ;
#79 = VERTEX_POINT ( 'NONE', #200 ) ;
#80 = DIRECTION ( 'NONE',  ( 0.0000000000000000000, -1.000000000000000000, 8.506747482357723600E-020 ) ) ;
#81 = SHAPE_DEFINITION_REPRESENTATION ( #104, #146 ) ;
#82 = VERTEX_POINT ( 'NONE', #19 ) ;
#83 = MECHANICAL_DESIGN_GEOMETRIC_PRESENTATION_REPRESENTATION (  '', ( #31 ), #194 ) ;
#84 = ORIENTED_EDGE ( 'NONE', *, *, #9, .F. ) ;
#85 = CARTESIAN_POINT ( 'NONE',  ( 7.533491325379902200E-016, 6.151562500000009600, -1.230312500000041700 ) ) ;
#86 = CARTESIAN_POINT ( 'NONE',  ( 0.0000000000000000000, 3.206501199772990100E-035, 3.769362152130416100E-016 ) ) ;
#87 = CARTESIAN_POINT ( 'NONE',  ( 0.0000000000000000000, -1.046595776188859100E-019, -1.230312500000041700 ) ) ;
#88 = CARTESIAN_POINT ( 'NONE',  ( 0.0000000000000000000, 4.921249999999988100, 3.765175769025661000E-016 ) ) ;
#89 = ORIENTED_EDGE ( 'NONE', *, *, #13, .F. ) ;
#90 = PRODUCT_CONTEXT ( 'NONE', #171, 'mechanical' ) ;
#91 =( NAMED_UNIT ( * ) SI_UNIT ( $, .STERADIAN. ) SOLID_ANGLE_UNIT ( ) );
#92 = ADVANCED_FACE ( 'NONE', ( #197 ), #29, .T. ) ;
#93 = AXIS2_PLACEMENT_3D ( 'NONE', #149, #118, #128 ) ;
#94 = ORIENTED_EDGE ( 'NONE', *, *, #13, .T. ) ;
#95 = VECTOR ( 'NONE', #53, 1000.000000000000000 ) ;
#96 = EDGE_CURVE ( 'NONE', #193, #33, #139, .T. ) ;
#97 = CONICAL_SURFACE ( 'NONE', #211, 4.921249999999988100, 0.7853981633974399500 ) ;
#98 = CIRCLE ( 'NONE', #147, 6.151562500000009600 ) ;
#99 = CARTESIAN_POINT ( 'NONE',  ( 7.533491325379902200E-016, 6.151562500000009600, -5.232978880944126300E-019 ) ) ;
#100 = DIRECTION ( 'NONE',  ( 0.0000000000000000000, -8.506747482357722400E-020, -1.000000000000000000 ) ) ;
#101 = VECTOR ( 'NONE', #155, 1000.000000000000100 ) ;
#102 = ORIENTED_EDGE ( 'NONE', *, *, #96, .T. ) ;
#103 = CARTESIAN_POINT ( 'NONE',  ( 0.0000000000000000000, -1.046595776188859100E-019, -1.230312500000041700 ) ) ;
#104 = PRODUCT_DEFINITION_SHAPE ( 'NONE', 'NONE',  #196 ) ;
#105 = CIRCLE ( 'NONE', #172, 4.921249999999988100 ) ;
#106 = APPLICATION_PROTOCOL_DEFINITION ( 'draft international standard', 'automotive_design', 1998, #171 ) ;
#107 = SURFACE_STYLE_USAGE ( .BOTH. , #188 ) ;
#108 = EDGE_LOOP ( 'NONE', ( #12, #1, #14, #135 ) ) ;
#109 = CARTESIAN_POINT ( 'NONE',  ( 0.0000000000000000000, 0.0000000000000000000, 0.0000000000000000000 ) ) ;
#110 = EDGE_LOOP ( 'NONE', ( #180, #5, #24, #42 ) ) ;
#111 = AXIS2_PLACEMENT_3D ( 'NONE', #4, #117, #145 ) ;
#112 = UNCERTAINTY_MEASURE_WITH_UNIT (LENGTH_MEASURE( 1.000000000000000100E-005 ), #10, 'distance_accuracy_value', 'NONE');
#113 =( GEOMETRIC_REPRESENTATION_CONTEXT ( 3 ) GLOBAL_UNCERTAINTY_ASSIGNED_CONTEXT ( ( #173 ) ) GLOBAL_UNIT_ASSIGNED_CONTEXT ( ( #44, #204, #150 ) ) REPRESENTATION_CONTEXT ( 'NONE', 'WORKASPACE' ) );
#114 = VECTOR ( 'NONE', #185, 1000.000000000000100 ) ;
#115 = PRODUCT_DEFINITION_FORMATION_WITH_SPECIFIED_SOURCE ( 'ANY', '', #184, .NOT_KNOWN. ) ;
#116 = CARTESIAN_POINT ( 'NONE',  ( 0.0000000000000000000, 3.206501199772990100E-035, 3.769362152130416100E-016 ) ) ;
#117 = DIRECTION ( 'NONE',  ( -0.0000000000000000000, 8.506747482357722400E-020, 1.000000000000000000 ) ) ;
#118 = DIRECTION ( 'NONE',  ( 0.0000000000000000000, -8.506747482357722400E-020, -1.000000000000000000 ) ) ;
#119 = ORIENTED_EDGE ( 'NONE', *, *, #69, .F. ) ;
#120 = FILL_AREA_STYLE ('',( #206 ) ) ;
#121 = PRESENTATION_STYLE_ASSIGNMENT (( #107 ) ) ;
#122 = EDGE_CURVE ( 'NONE', #132, #71, #11, .T. ) ;
#123 = ORIENTED_EDGE ( 'NONE', *, *, #28, .F. ) ;
#124 = EDGE_CURVE ( 'NONE', #82, #193, #125, .T. ) ;
#125 = CIRCLE ( 'NONE', #207, 4.921249999999988100 ) ;
#126 = ORIENTED_EDGE ( 'NONE', *, *, #124, .F. ) ;
#127 = DIRECTION ( 'NONE',  ( -0.0000000000000000000, 8.506747482357722400E-020, 1.000000000000000000 ) ) ;
#128 = DIRECTION ( 'NONE',  ( 0.0000000000000000000, 1.000000000000000000, -8.506747482358059500E-020 ) ) ;
#129 = CARTESIAN_POINT ( 'NONE',  ( 0.0000000000000000000, 4.921249999999988100, 3.765175769025661000E-016 ) ) ;
#130 = CARTESIAN_POINT ( 'NONE',  ( 7.533491325379910100E-016, 6.151562500000016700, -149.2249999999999900 ) ) ;
#131 = CARTESIAN_POINT ( 'NONE',  ( 6.026793060303896900E-016, -4.921249999999988100, 3.773548535235171700E-016 ) ) ;
#132 = VERTEX_POINT ( 'NONE', #181 ) ;
#133 = DIRECTION ( 'NONE',  ( 0.0000000000000000000, 1.000000000000000000, -8.506747482358059500E-020 ) ) ;
#134 = FILL_AREA_STYLE ('',( #8 ) ) ;
#135 = ORIENTED_EDGE ( 'NONE', *, *, #72, .F. ) ;
#136 = ADVANCED_FACE ( 'NONE', ( #70 ), #20, .F. ) ;
#137 = ORIENTED_EDGE ( 'NONE', *, *, #124, .T. ) ;
#138 = AXIS2_PLACEMENT_3D ( 'NONE', #186, #154, #80 ) ;
#139 = LINE ( 'NONE', #129, #62 ) ;
#140 = ADVANCED_FACE ( 'NONE', ( #148 ), #178, .T. ) ;
#141 = CYLINDRICAL_SURFACE ( 'NONE', #138, 6.151562500000009600 ) ;
#142 = ORIENTED_EDGE ( 'NONE', *, *, #28, .T. ) ;
#143 = EDGE_CURVE ( 'NONE', #79, #132, #47, .T. ) ;
#144 = ORIENTED_EDGE ( 'NONE', *, *, #143, .F. ) ;
#145 = DIRECTION ( 'NONE',  ( 0.0000000000000000000, -1.000000000000000000, 0.0000000000000000000 ) ) ;
#146 = ADVANCED_BREP_SHAPE_REPRESENTATION ( '03-0367', ( #177, #75 ), #38 ) ;
#147 = AXIS2_PLACEMENT_3D ( 'NONE', #87, #100, #77 ) ;
#148 = FACE_OUTER_BOUND ( 'NONE', #179, .T. ) ;
#149 = CARTESIAN_POINT ( 'NONE',  ( 0.0000000000000000000, 3.206501199772990100E-035, 3.769362152130416100E-016 ) ) ;
#150 =( NAMED_UNIT ( * ) SI_UNIT ( $, .STERADIAN. ) SOLID_ANGLE_UNIT ( ) );
#151 = SURFACE_STYLE_FILL_AREA ( #134 ) ;
#152 = SURFACE_STYLE_USAGE ( .BOTH. , #205 ) ;
#153 = EDGE_LOOP ( 'NONE', ( #144, #165, #50 ) ) ;
#154 = DIRECTION ( 'NONE',  ( -0.0000000000000000000, 8.506747482357722400E-020, 1.000000000000000000 ) ) ;
#155 = DIRECTION ( 'NONE',  ( 0.0000000000000000000, -0.9238795325112856300, 0.3826834323650922800 ) ) ;
#156 = DIRECTION ( 'NONE',  ( -0.0000000000000000000, 8.506747482357722400E-020, 1.000000000000000000 ) ) ;
#157 = ADVANCED_FACE ( 'NONE', ( #159 ), #163, .T. ) ;
#158 = LINE ( 'NONE', #131, #95 ) ;
#159 = FACE_OUTER_BOUND ( 'NONE', #153, .T. ) ;
#160 = LINE ( 'NONE', #6, #114 ) ;
#161 = AXIS2_PLACEMENT_3D ( 'NONE', #63, #168, #59 ) ;
#162 = DIRECTION ( 'NONE',  ( 0.0000000000000000000, 0.7071067811865415800, -0.7071067811865535700 ) ) ;
#163 = CONICAL_SURFACE ( 'NONE', #3, 2414.213562373076900, 1.178097245096169800 ) ;
#164 = DIRECTION ( 'NONE',  ( 0.0000000000000000000, -8.506747482357722400E-020, -1.000000000000000000 ) ) ;
#165 = ORIENTED_EDGE ( 'NONE', *, *, #17, .T. ) ;
#166 =( LENGTH_UNIT ( ) NAMED_UNIT ( * ) SI_UNIT ( .MILLI., .METRE. ) );
#167 = APPLICATION_CONTEXT ( 'automotive_design' ) ;
#168 = DIRECTION ( 'NONE',  ( -0.0000000000000000000, 8.506747482357722400E-020, 1.000000000000000000 ) ) ;
#169 = CARTESIAN_POINT ( 'NONE',  ( 0.0000000000000000000, 7.215652381061901300E-017, 848.2269393827142500 ) ) ;
#170 = ORIENTED_EDGE ( 'NONE', *, *, #143, .T. ) ;
#171 = APPLICATION_CONTEXT ( 'automotive_design' ) ;
#172 = AXIS2_PLACEMENT_3D ( 'NONE', #86, #52, #182 ) ;
#173 = UNCERTAINTY_MEASURE_WITH_UNIT (LENGTH_MEASURE( 1.000000000000000100E-005 ), #44, 'distance_accuracy_value', 'NONE');
#174 = COLOUR_RGB ( '',0.7921568627450980000, 0.8196078431372548800, 0.9333333333333333500 ) ;
#175 = EDGE_LOOP ( 'NONE', ( #142, #137 ) ) ;
#176 = MECHANICAL_DESIGN_GEOMETRIC_PRESENTATION_REPRESENTATION (  '', ( #34 ), #113 ) ;
#177 = MANIFOLD_SOLID_BREP ( '¸ðµû±â1', #73 ) ;
#178 = CONICAL_SURFACE ( 'NONE', #161, 2414.213562373076900, 1.178097245096169800 ) ;
#179 = EDGE_LOOP ( 'NONE', ( #183, #170, #84 ) ) ;
#180 = ORIENTED_EDGE ( 'NONE', *, *, #64, .F. ) ;
#181 = CARTESIAN_POINT ( 'NONE',  ( 0.0000000000000000000, -6.151562500000016700, -149.2249999999999900 ) ) ;
#182 = DIRECTION ( 'NONE',  ( 0.0000000000000000000, 1.000000000000000000, -8.506747482358059500E-020 ) ) ;
#183 = ORIENTED_EDGE ( 'NONE', *, *, #17, .F. ) ;
#184 = PRODUCT ( '03-0367', '03-0367', '', ( #90 ) ) ;
#185 = DIRECTION ( 'NONE',  ( 1.131426112287699000E-016, 0.9238795325112856300, 0.3826834323650922800 ) ) ;
#186 = CARTESIAN_POINT ( 'NONE',  ( 0.0000000000000000000, 0.0000000000000000000, 0.0000000000000000000 ) ) ;
#187 = VECTOR ( 'NONE', #127, 1000.000000000000000 ) ;
#188 = SURFACE_SIDE_STYLE ('',( #151 ) ) ;
#189 =( NAMED_UNIT ( * ) PLANE_ANGLE_UNIT ( ) SI_UNIT ( $, .RADIAN. ) );
#190 = UNCERTAINTY_MEASURE_WITH_UNIT (LENGTH_MEASURE( 1.000000000000000100E-005 ), #166, 'distance_accuracy_value', 'NONE');
#191 = CARTESIAN_POINT ( 'NONE',  ( 0.0000000000000000000, -1.291095101295821700E-017, -151.7730606172857800 ) ) ;
#192 = CYLINDRICAL_SURFACE ( 'NONE', #46, 6.151562500000009600 ) ;
#193 = VERTEX_POINT ( 'NONE', #88 ) ;
#194 =( GEOMETRIC_REPRESENTATION_CONTEXT ( 3 ) GLOBAL_UNCERTAINTY_ASSIGNED_CONTEXT ( ( #112 ) ) GLOBAL_UNIT_ASSIGNED_CONTEXT ( ( #10, #60, #27 ) ) REPRESENTATION_CONTEXT ( 'NONE', 'WORKASPACE' ) );
#195 = ADVANCED_FACE ( 'NONE', ( #65 ), #192, .T. ) ;
#196 = PRODUCT_DEFINITION ( 'UNKNOWN', '', #115, #54 ) ;
#197 = FACE_OUTER_BOUND ( 'NONE', #15, .T. ) ;
#198 = AXIS2_PLACEMENT_3D ( 'NONE', #2, #74, #35 ) ;
#199 = PRESENTATION_LAYER_ASSIGNMENT (  '', '', ( #34 ) ) ;
#200 = CARTESIAN_POINT ( 'NONE',  ( 0.0000000000000000000, -1.291095101295821700E-017, -151.7730606172857800 ) ) ;
#201 = PRODUCT_RELATED_PRODUCT_CATEGORY ( 'part', '', ( #184 ) ) ;
#202 = ORIENTED_EDGE ( 'NONE', *, *, #96, .F. ) ;
#203 = DIRECTION ( 'NONE',  ( -0.0000000000000000000, 8.506747482357722400E-020, 1.000000000000000000 ) ) ;
#204 =( NAMED_UNIT ( * ) PLANE_ANGLE_UNIT ( ) SI_UNIT ( $, .RADIAN. ) );
#205 = SURFACE_SIDE_STYLE ('',( #209 ) ) ;
#206 = FILL_AREA_STYLE_COLOUR ( '', #40 ) ;
#207 = AXIS2_PLACEMENT_3D ( 'NONE', #61, #203, #133 ) ;
#208 = ADVANCED_FACE ( 'NONE', ( #212 ), #141, .T. ) ;
#209 = SURFACE_STYLE_FILL_AREA ( #120 ) ;
#210 = CIRCLE ( 'NONE', #198, 6.151562500000018500 ) ;
#211 = AXIS2_PLACEMENT_3D ( 'NONE', #116, #18, #39 ) ;
#212 = FACE_OUTER_BOUND ( 'NONE', #108, .T. ) ;
#213 = CIRCLE ( 'NONE', #32, 6.151562500000009600 ) ;
#214 = AXIS2_PLACEMENT_3D ( 'NONE', #56, #26, #41 ) ;
ENDSEC;
END-ISO-10303-21;
