ISO-10303-21;
HEADER;
FILE_DESCRIPTION (( 'STEP AP214' ),
    '1' );
FILE_NAME ('03-0368.STEP',
    '2020-07-23T07:15:47',
    ( '' ),
    ( '' ),
    'SwSTEP 2.0',
    'SolidWorks 2014',
    '' );
FILE_SCHEMA (( 'AUTOMOTIVE_DESIGN' ));
ENDSEC;

DATA;
#1 = ADVANCED_FACE ( 'NONE', ( #196 ), #212, .T. ) ;
#2 = ORIENTED_EDGE ( 'NONE', *, *, #168, .F. ) ;
#3 = LINE ( 'NONE', #72, #75 ) ;
#4 = DIRECTION ( 'NONE',  ( 1.131426112287699300E-016, 0.9238795325112858500, 0.3826834323650920600 ) ) ;
#5 = AXIS2_PLACEMENT_3D ( 'NONE', #85, #56, #54 ) ;
#6 = DIRECTION ( 'NONE',  ( 0.0000000000000000000, -1.000000000000000000, 0.0000000000000000000 ) ) ;
#7 = APPLICATION_PROTOCOL_DEFINITION ( 'draft international standard', 'automotive_design', 1998, #32 ) ;
#8 = PRESENTATION_STYLE_ASSIGNMENT (( #81 ) ) ;
#9 = ORIENTED_EDGE ( 'NONE', *, *, #141, .F. ) ;
#10 = VECTOR ( 'NONE', #184, 1000.000000000000100 ) ;
#11 = UNCERTAINTY_MEASURE_WITH_UNIT (LENGTH_MEASURE( 1.000000000000000100E-005 ), #208, 'distance_accuracy_value', 'NONE');
#12 = EDGE_LOOP ( 'NONE', ( #202, #93, #95 ) ) ;
#13 = ORIENTED_EDGE ( 'NONE', *, *, #16, .T. ) ;
#14 = ORIENTED_EDGE ( 'NONE', *, *, #96, .F. ) ;
#15 = DIRECTION ( 'NONE',  ( 0.0000000000000000000, -2.291473776997446300E-020, -1.000000000000000000 ) ) ;
#16 = EDGE_CURVE ( 'NONE', #138, #123, #29, .T. ) ;
#17 = DIRECTION ( 'NONE',  ( 0.0000000000000000000, -1.000000000000000000, 2.291473776997446000E-020 ) ) ;
#18 = CARTESIAN_POINT ( 'NONE',  ( 0.0000000000000000000, 0.0000000000000000000, 0.0000000000000000000 ) ) ;
#19 = CARTESIAN_POINT ( 'NONE',  ( 0.0000000000000000000, -3.552477665426277700E-018, -155.0302561210691600 ) ) ;
#20 = ORIENTED_EDGE ( 'NONE', *, *, #96, .T. ) ;
#21 = DIRECTION ( 'NONE',  ( 0.0000000000000000000, 1.000000000000000000, -2.291473776997772200E-020 ) ) ;
#22 = SURFACE_SIDE_STYLE ('',( #205 ) ) ;
#23 = EDGE_CURVE ( 'NONE', #74, #138, #26, .T. ) ;
#24 = AXIS2_PLACEMENT_3D ( 'NONE', #194, #207, #155 ) ;
#25 = LINE ( 'NONE', #165, #187 ) ;
#26 = LINE ( 'NONE', #19, #50 ) ;
#27 = CARTESIAN_POINT ( 'NONE',  ( 7.776507174585716800E-016, 6.350000000000020100, -152.3999999999999800 ) ) ;
#28 = CARTESIAN_POINT ( 'NONE',  ( 0.0000000000000000000, -3.552477665426277700E-018, -155.0302561210691600 ) ) ;
#29 = CIRCLE ( 'NONE', #24, 6.350000000000017400 ) ;
#30 = DIRECTION ( 'NONE',  ( 0.0000000000000000000, 1.000000000000000000, 0.0000000000000000000 ) ) ;
#31 = SURFACE_SIDE_STYLE ('',( #46 ) ) ;
#32 = APPLICATION_CONTEXT ( 'automotive_design' ) ;
#33 = DIRECTION ( 'NONE',  ( 0.0000000000000000000, -2.291473776997446000E-020, -1.000000000000000000 ) ) ;
#34 = DIRECTION ( 'NONE',  ( 8.659560562354903300E-017, -0.7071067811865451300, -0.7071067811865500200 ) ) ;
#35 = CONICAL_SURFACE ( 'NONE', #162, 2414.213562373078300, 1.178097245096170000 ) ;
#36 = AXIS2_PLACEMENT_3D ( 'NONE', #97, #113, #30 ) ;
#37 = ORIENTED_EDGE ( 'NONE', *, *, #203, .T. ) ;
#38 = EDGE_CURVE ( 'NONE', #76, #90, #198, .T. ) ;
#39 = CONICAL_SURFACE ( 'NONE', #78, 5.080000000000001800, 0.7853981633974447300 ) ;
#40 = ADVANCED_FACE ( 'NONE', ( #163 ), #39, .T. ) ;
#41 = ORIENTED_EDGE ( 'NONE', *, *, #168, .T. ) ;
#42 = CIRCLE ( 'NONE', #49, 5.080000000000001800 ) ;
#43 = PRODUCT_DEFINITION_CONTEXT ( 'detailed design', #32, 'design' ) ;
#44 = DIRECTION ( 'NONE',  ( -0.0000000000000000000, 2.291473776997446000E-020, 1.000000000000000000 ) ) ;
#45 = DIRECTION ( 'NONE',  ( 0.0000000000000000000, 1.000000000000000000, -2.291473776997772200E-020 ) ) ;
#46 = SURFACE_STYLE_FILL_AREA ( #130 ) ;
#47 = AXIS2_PLACEMENT_3D ( 'NONE', #152, #170, #6 ) ;
#48 = PRODUCT_DEFINITION_SHAPE ( 'NONE', 'NONE',  #140 ) ;
#49 = AXIS2_PLACEMENT_3D ( 'NONE', #195, #157, #175 ) ;
#50 = VECTOR ( 'NONE', #115, 1000.000000000000100 ) ;
#51 = CARTESIAN_POINT ( 'NONE',  ( 0.0000000000000000000, -6.350000000000008500, 1.455085848393380200E-019 ) ) ;
#52 = LINE ( 'NONE', #51, #117 ) ;
#53 =( LENGTH_UNIT ( ) NAMED_UNIT ( * ) SI_UNIT ( .MILLI., .METRE. ) );
#54 = DIRECTION ( 'NONE',  ( 1.000000000000000000, 0.0000000000000000000, 0.0000000000000000000 ) ) ;
#55 = CARTESIAN_POINT ( 'NONE',  ( 0.0000000000000000000, 0.0000000000000000000, 0.0000000000000000000 ) ) ;
#56 = DIRECTION ( 'NONE',  ( 0.0000000000000000000, 0.0000000000000000000, 1.000000000000000000 ) ) ;
#57 = ORIENTED_EDGE ( 'NONE', *, *, #164, .T. ) ;
#58 = PRESENTATION_LAYER_ASSIGNMENT (  '', '', ( #108 ) ) ;
#59 = MANIFOLD_SOLID_BREP ( '¸ðµû±â1', #186 ) ;
#60 = MECHANICAL_DESIGN_GEOMETRIC_PRESENTATION_REPRESENTATION (  '', ( #108 ), #94 ) ;
#61 = ORIENTED_EDGE ( 'NONE', *, *, #203, .F. ) ;
#62 = ADVANCED_FACE ( 'NONE', ( #83 ), #191, .F. ) ;
#63 = COLOUR_RGB ( '',0.7921568627450980000, 0.8196078431372548800, 0.9333333333333333500 ) ;
#64 = CARTESIAN_POINT ( 'NONE',  ( 0.0000000000000000000, 8.911498279130245100E-036, 3.888981130217043000E-016 ) ) ;
#65 = CARTESIAN_POINT ( 'NONE',  ( 0.0000000000000000000, 5.080000000000001800, 3.887817061538327900E-016 ) ) ;
#66 = SHAPE_DEFINITION_REPRESENTATION ( #48, #114 ) ;
#67 = CARTESIAN_POINT ( 'NONE',  ( 0.0000000000000000000, -3.492206036144107500E-018, -152.3999999999999800 ) ) ;
#68 = CARTESIAN_POINT ( 'NONE',  ( 0.0000000000000000000, 8.911498279130243800E-036, 3.888981130217043000E-016 ) ) ;
#69 = ORIENTED_EDGE ( 'NONE', *, *, #178, .F. ) ;
#70 = FILL_AREA_STYLE_COLOUR ( '', #109 ) ;
#71 = AXIS2_PLACEMENT_3D ( 'NONE', #64, #182, #166 ) ;
#72 = CARTESIAN_POINT ( 'NONE',  ( 6.221205739668556300E-016, -5.080000000000001800, 3.890145198895757500E-016 ) ) ;
#73 = DIRECTION ( 'NONE',  ( 0.0000000000000000000, -1.000000000000000000, 2.291473776997446000E-020 ) ) ;
#74 = VERTEX_POINT ( 'NONE', #28 ) ;
#75 = VECTOR ( 'NONE', #34, 1000.000000000000100 ) ;
#76 = VERTEX_POINT ( 'NONE', #131 ) ;
#77 = PRODUCT ( '03-0368', '03-0368', '', ( #100 ) ) ;
#78 = AXIS2_PLACEMENT_3D ( 'NONE', #68, #112, #21 ) ;
#79 = DIRECTION ( 'NONE',  ( 0.0000000000000000000, -1.000000000000000000, 0.0000000000000000000 ) ) ;
#80 = FILL_AREA_STYLE_COLOUR ( '', #63 ) ;
#81 = SURFACE_STYLE_USAGE ( .BOTH. , #31 ) ;
#82 =( NAMED_UNIT ( * ) SI_UNIT ( $, .STERADIAN. ) SOLID_ANGLE_UNIT ( ) );
#83 = FACE_OUTER_BOUND ( 'NONE', #179, .T. ) ;
#84 = CARTESIAN_POINT ( 'NONE',  ( 0.0000000000000000000, 1.936226010454818100E-017, 844.9697438789309000 ) ) ;
#85 = CARTESIAN_POINT ( 'NONE',  ( 0.0000000000000000000, 0.0000000000000000000, 0.0000000000000000000 ) ) ;
#86 = DIRECTION ( 'NONE',  ( -0.0000000000000000000, 2.291473776997446000E-020, 1.000000000000000000 ) ) ;
#87 = ORIENTED_EDGE ( 'NONE', *, *, #178, .T. ) ;
#88 = LINE ( 'NONE', #65, #10 ) ;
#89 = PRODUCT_DEFINITION_FORMATION_WITH_SPECIFIED_SOURCE ( 'ANY', '', #77, .NOT_KNOWN. ) ;
#90 = VERTEX_POINT ( 'NONE', #125 ) ;
#91 = CONICAL_SURFACE ( 'NONE', #143, 5.080000000000001800, 0.7853981633974447300 ) ;
#92 = CARTESIAN_POINT ( 'NONE',  ( 0.0000000000000000000, 8.911498279130243800E-036, 3.888981130217043000E-016 ) ) ;
#93 = ORIENTED_EDGE ( 'NONE', *, *, #154, .T. ) ;
#94 =( GEOMETRIC_REPRESENTATION_CONTEXT ( 3 ) GLOBAL_UNCERTAINTY_ASSIGNED_CONTEXT ( ( #11 ) ) GLOBAL_UNIT_ASSIGNED_CONTEXT ( ( #208, #98, #134 ) ) REPRESENTATION_CONTEXT ( 'NONE', 'WORKASPACE' ) );
#95 = ORIENTED_EDGE ( 'NONE', *, *, #16, .F. ) ;
#96 = EDGE_CURVE ( 'NONE', #123, #90, #25, .T. ) ;
#97 = CARTESIAN_POINT ( 'NONE',  ( 0.0000000000000000000, -2.910171696786790000E-020, -1.270000000000014700 ) ) ;
#98 =( NAMED_UNIT ( * ) PLANE_ANGLE_UNIT ( ) SI_UNIT ( $, .RADIAN. ) );
#99 = EDGE_LOOP ( 'NONE', ( #14, #57, #87, #104 ) ) ;
#100 = PRODUCT_CONTEXT ( 'NONE', #209, 'mechanical' ) ;
#101 = PRODUCT_RELATED_PRODUCT_CATEGORY ( 'part', '', ( #77 ) ) ;
#102 = ORIENTED_EDGE ( 'NONE', *, *, #154, .F. ) ;
#103 = CIRCLE ( 'NONE', #177, 6.350000000000008500 ) ;
#104 = ORIENTED_EDGE ( 'NONE', *, *, #38, .T. ) ;
#105 =( GEOMETRIC_REPRESENTATION_CONTEXT ( 3 ) GLOBAL_UNCERTAINTY_ASSIGNED_CONTEXT ( ( #120 ) ) GLOBAL_UNIT_ASSIGNED_CONTEXT ( ( #53, #213, #82 ) ) REPRESENTATION_CONTEXT ( 'NONE', 'WORKASPACE' ) );
#106 = CYLINDRICAL_SURFACE ( 'NONE', #173, 6.350000000000008500 ) ;
#107 = ORIENTED_EDGE ( 'NONE', *, *, #141, .T. ) ;
#108 = STYLED_ITEM ( 'NONE', ( #8 ), #59 ) ;
#109 = COLOUR_RGB ( '',0.7921568627450980000, 0.8196078431372548800, 0.9333333333333333500 ) ;
#110 = CARTESIAN_POINT ( 'NONE',  ( 0.0000000000000000000, -2.910171696786790000E-020, -1.270000000000014700 ) ) ;
#111 = VERTEX_POINT ( 'NONE', #204 ) ;
#112 = DIRECTION ( 'NONE',  ( 0.0000000000000000000, -2.291473776997446300E-020, -1.000000000000000000 ) ) ;
#113 = DIRECTION ( 'NONE',  ( 0.0000000000000000000, -2.291473776997446300E-020, -1.000000000000000000 ) ) ;
#114 = ADVANCED_BREP_SHAPE_REPRESENTATION ( '03-0368', ( #59, #5 ), #105 ) ;
#115 = DIRECTION ( 'NONE',  ( 0.0000000000000000000, -0.9238795325112858500, 0.3826834323650920600 ) ) ;
#116 = APPLICATION_PROTOCOL_DEFINITION ( 'draft international standard', 'automotive_design', 1998, #209 ) ;
#117 = VECTOR ( 'NONE', #188, 1000.000000000000000 ) ;
#118 = DIRECTION ( 'NONE',  ( -0.0000000000000000000, 2.291473776997446000E-020, 1.000000000000000000 ) ) ;
#119 = ORIENTED_EDGE ( 'NONE', *, *, #192, .F. ) ;
#120 = UNCERTAINTY_MEASURE_WITH_UNIT (LENGTH_MEASURE( 1.000000000000000100E-005 ), #53, 'distance_accuracy_value', 'NONE');
#121 =( GEOMETRIC_REPRESENTATION_CONTEXT ( 3 ) GLOBAL_UNCERTAINTY_ASSIGNED_CONTEXT ( ( #190 ) ) GLOBAL_UNIT_ASSIGNED_CONTEXT ( ( #172, #132, #136 ) ) REPRESENTATION_CONTEXT ( 'NONE', 'WORKASPACE' ) );
#122 = ADVANCED_FACE ( 'NONE', ( #214 ), #91, .T. ) ;
#123 = VERTEX_POINT ( 'NONE', #27 ) ;
#124 = EDGE_CURVE ( 'NONE', #183, #111, #210, .T. ) ;
#125 = CARTESIAN_POINT ( 'NONE',  ( 7.776507174585703000E-016, 6.350000000000008500, -1.270000000000014700 ) ) ;
#126 = DIRECTION ( 'NONE',  ( 0.0000000000000000000, -2.291473776997446300E-020, -1.000000000000000000 ) ) ;
#127 = ORIENTED_EDGE ( 'NONE', *, *, #192, .T. ) ;
#128 = CYLINDRICAL_SURFACE ( 'NONE', #158, 6.350000000000008500 ) ;
#129 = DIRECTION ( 'NONE',  ( -0.0000000000000000000, 2.291473776997446000E-020, 1.000000000000000000 ) ) ;
#130 = FILL_AREA_STYLE ('',( #80 ) ) ;
#131 = CARTESIAN_POINT ( 'NONE',  ( 0.0000000000000000000, -6.350000000000008500, -1.270000000000014700 ) ) ;
#132 =( NAMED_UNIT ( * ) PLANE_ANGLE_UNIT ( ) SI_UNIT ( $, .RADIAN. ) );
#133 = EDGE_LOOP ( 'NONE', ( #61, #153, #107, #176 ) ) ;
#134 =( NAMED_UNIT ( * ) SI_UNIT ( $, .STERADIAN. ) SOLID_ANGLE_UNIT ( ) );
#135 = SURFACE_STYLE_USAGE ( .BOTH. , #22 ) ;
#136 =( NAMED_UNIT ( * ) SI_UNIT ( $, .STERADIAN. ) SOLID_ANGLE_UNIT ( ) );
#137 = DIRECTION ( 'NONE',  ( 0.0000000000000000000, -1.000000000000000000, 0.0000000000000000000 ) ) ;
#138 = VERTEX_POINT ( 'NONE', #146 ) ;
#139 = VECTOR ( 'NONE', #4, 1000.000000000000100 ) ;
#140 = PRODUCT_DEFINITION ( 'UNKNOWN', '', #89, #43 ) ;
#141 = EDGE_CURVE ( 'NONE', #183, #90, #88, .T. ) ;
#142 = EDGE_LOOP ( 'NONE', ( #13, #20, #41, #69 ) ) ;
#143 = AXIS2_PLACEMENT_3D ( 'NONE', #92, #15, #45 ) ;
#144 = EDGE_LOOP ( 'NONE', ( #119, #37, #2, #9 ) ) ;
#145 = FACE_OUTER_BOUND ( 'NONE', #142, .T. ) ;
#146 = CARTESIAN_POINT ( 'NONE',  ( 0.0000000000000000000, -6.350000000000020100, -152.3999999999999800 ) ) ;
#147 = ORIENTED_EDGE ( 'NONE', *, *, #124, .T. ) ;
#148 = DIRECTION ( 'NONE',  ( 0.0000000000000000000, 1.000000000000000000, 0.0000000000000000000 ) ) ;
#149 = STYLED_ITEM ( 'NONE', ( #199 ), #114 ) ;
#150 = FACE_OUTER_BOUND ( 'NONE', #99, .T. ) ;
#151 = DIRECTION ( 'NONE',  ( -0.0000000000000000000, 2.291473776997446000E-020, 1.000000000000000000 ) ) ;
#152 = CARTESIAN_POINT ( 'NONE',  ( 0.0000000000000000000, 1.936226010454818100E-017, 844.9697438789309000 ) ) ;
#153 = ORIENTED_EDGE ( 'NONE', *, *, #124, .F. ) ;
#154 = EDGE_CURVE ( 'NONE', #74, #123, #180, .T. ) ;
#155 = DIRECTION ( 'NONE',  ( 0.0000000000000000000, -1.000000000000000000, 0.0000000000000000000 ) ) ;
#156 = FILL_AREA_STYLE ('',( #70 ) ) ;
#157 = DIRECTION ( 'NONE',  ( -0.0000000000000000000, 2.291473776997446000E-020, 1.000000000000000000 ) ) ;
#158 = AXIS2_PLACEMENT_3D ( 'NONE', #18, #129, #17 ) ;
#159 = ORIENTED_EDGE ( 'NONE', *, *, #23, .T. ) ;
#160 = DIRECTION ( 'NONE',  ( 0.0000000000000000000, 1.000000000000000000, -2.291473776997446000E-020 ) ) ;
#161 = ADVANCED_FACE ( 'NONE', ( #150 ), #128, .T. ) ;
#162 = AXIS2_PLACEMENT_3D ( 'NONE', #84, #118, #137 ) ;
#163 = FACE_OUTER_BOUND ( 'NONE', #133, .T. ) ;
#164 = EDGE_CURVE ( 'NONE', #123, #138, #167, .T. ) ;
#165 = CARTESIAN_POINT ( 'NONE',  ( 7.776507174585703000E-016, 6.350000000000008500, -1.455085848393380200E-019 ) ) ;
#166 = DIRECTION ( 'NONE',  ( 0.0000000000000000000, 1.000000000000000000, -2.291473776997772200E-020 ) ) ;
#167 = CIRCLE ( 'NONE', #201, 6.350000000000017400 ) ;
#168 = EDGE_CURVE ( 'NONE', #90, #76, #103, .T. ) ;
#169 = EDGE_LOOP ( 'NONE', ( #102, #159, #193 ) ) ;
#170 = DIRECTION ( 'NONE',  ( -0.0000000000000000000, 2.291473776997446000E-020, 1.000000000000000000 ) ) ;
#171 = CARTESIAN_POINT ( 'NONE',  ( 0.0000000000000000000, 6.349999999999999600, 3.887526044368649200E-016 ) ) ;
#172 =( LENGTH_UNIT ( ) NAMED_UNIT ( * ) SI_UNIT ( .MILLI., .METRE. ) );
#173 = AXIS2_PLACEMENT_3D ( 'NONE', #55, #86, #73 ) ;
#174 = CARTESIAN_POINT ( 'NONE',  ( 0.0000000000000000000, 5.080000000000001800, 3.887817061538327900E-016 ) ) ;
#175 = DIRECTION ( 'NONE',  ( 0.0000000000000000000, 1.000000000000000000, -2.291473776997772200E-020 ) ) ;
#176 = ORIENTED_EDGE ( 'NONE', *, *, #38, .F. ) ;
#177 = AXIS2_PLACEMENT_3D ( 'NONE', #110, #126, #148 ) ;
#178 = EDGE_CURVE ( 'NONE', #138, #76, #52, .T. ) ;
#179 = EDGE_LOOP ( 'NONE', ( #147, #127 ) ) ;
#180 = LINE ( 'NONE', #206, #139 ) ;
#181 = ADVANCED_FACE ( 'NONE', ( #145 ), #106, .T. ) ;
#182 = DIRECTION ( 'NONE',  ( -0.0000000000000000000, 2.291473776997446000E-020, 1.000000000000000000 ) ) ;
#183 = VERTEX_POINT ( 'NONE', #174 ) ;
#184 = DIRECTION ( 'NONE',  ( 0.0000000000000000000, 0.7071067811865451300, -0.7071067811865500200 ) ) ;
#185 = MECHANICAL_DESIGN_GEOMETRIC_PRESENTATION_REPRESENTATION (  '', ( #149 ), #121 ) ;
#186 = CLOSED_SHELL ( 'NONE', ( #122, #181, #200, #62, #1, #161, #40 ) ) ;
#187 = VECTOR ( 'NONE', #44, 1000.000000000000000 ) ;
#188 = DIRECTION ( 'NONE',  ( -0.0000000000000000000, 2.291473776997446000E-020, 1.000000000000000000 ) ) ;
#189 = AXIS2_PLACEMENT_3D ( 'NONE', #171, #33, #160 ) ;
#190 = UNCERTAINTY_MEASURE_WITH_UNIT (LENGTH_MEASURE( 1.000000000000000100E-005 ), #172, 'distance_accuracy_value', 'NONE');
#191 = PLANE ( 'NONE',  #189 ) ;
#192 = EDGE_CURVE ( 'NONE', #111, #183, #42, .T. ) ;
#193 = ORIENTED_EDGE ( 'NONE', *, *, #164, .F. ) ;
#194 = CARTESIAN_POINT ( 'NONE',  ( 0.0000000000000000000, -3.492206036144107500E-018, -152.3999999999999800 ) ) ;
#195 = CARTESIAN_POINT ( 'NONE',  ( 0.0000000000000000000, 8.911498279130245100E-036, 3.888981130217043000E-016 ) ) ;
#196 = FACE_OUTER_BOUND ( 'NONE', #169, .T. ) ;
#197 = FACE_OUTER_BOUND ( 'NONE', #12, .T. ) ;
#198 = CIRCLE ( 'NONE', #36, 6.350000000000008500 ) ;
#199 = PRESENTATION_STYLE_ASSIGNMENT (( #135 ) ) ;
#200 = ADVANCED_FACE ( 'NONE', ( #197 ), #35, .T. ) ;
#201 = AXIS2_PLACEMENT_3D ( 'NONE', #67, #151, #79 ) ;
#202 = ORIENTED_EDGE ( 'NONE', *, *, #23, .F. ) ;
#203 = EDGE_CURVE ( 'NONE', #111, #76, #3, .T. ) ;
#204 = CARTESIAN_POINT ( 'NONE',  ( 6.998856457127129700E-016, -5.080000000000001800, 3.890145198895757500E-016 ) ) ;
#205 = SURFACE_STYLE_FILL_AREA ( #156 ) ;
#206 = CARTESIAN_POINT ( 'NONE',  ( 0.0000000000000000000, -3.552477665426277700E-018, -155.0302561210691600 ) ) ;
#207 = DIRECTION ( 'NONE',  ( -0.0000000000000000000, 2.291473776997446000E-020, 1.000000000000000000 ) ) ;
#208 =( LENGTH_UNIT ( ) NAMED_UNIT ( * ) SI_UNIT ( .MILLI., .METRE. ) );
#209 = APPLICATION_CONTEXT ( 'automotive_design' ) ;
#210 = CIRCLE ( 'NONE', #71, 5.080000000000001800 ) ;
#211 = PRESENTATION_LAYER_ASSIGNMENT (  '', '', ( #149 ) ) ;
#212 = CONICAL_SURFACE ( 'NONE', #47, 2414.213562373078300, 1.178097245096170000 ) ;
#213 =( NAMED_UNIT ( * ) PLANE_ANGLE_UNIT ( ) SI_UNIT ( $, .RADIAN. ) );
#214 = FACE_OUTER_BOUND ( 'NONE', #144, .T. ) ;
ENDSEC;
END-ISO-10303-21;
