ISO-10303-21;
HEADER;
FILE_DESCRIPTION (( 'STEP AP214' ),
    '1' );
FILE_NAME ('03-1310.STEP',
    '2021-10-07T09:24:41',
    ( 'USER' ),
    ( '' ),
    'SwSTEP 2.0',
    'SolidWorks 2018',
    '' );
FILE_SCHEMA (( 'AUTOMOTIVE_DESIGN' ));
ENDSEC;

DATA;
#1 = ORIENTED_EDGE ( 'NONE', *, *, #49, .T. ) ;
#2 = APPLICATION_PROTOCOL_DEFINITION ( 'draft international standard', 'automotive_design', 1998, #104 ) ;
#3 = UNCERTAINTY_MEASURE_WITH_UNIT (LENGTH_MEASURE( 1.000000000000000082E-05 ), #115, 'distance_accuracy_value', 'NONE');
#4 = EDGE_LOOP ( 'NONE', ( #116 ) ) ;
#5 = ORIENTED_EDGE ( 'NONE', *, *, #41, .T. ) ;
#6 = DIRECTION ( 'NONE',  ( 0.0000000000000000000, 1.000000000000000000, 0.0000000000000000000 ) ) ;
#7 = CLOSED_SHELL ( 'NONE', ( #19, #75, #21 ) ) ;
#8 = DIRECTION ( 'NONE',  ( 0.0000000000000000000, 0.0000000000000000000, 1.000000000000000000 ) ) ;
#9 = COLOUR_RGB ( '',1.000000000000000000, 1.000000000000000000, 0.0000000000000000000 ) ;
#10 = PRODUCT_DEFINITION ( 'UNKNOWN', '', #162, #30 ) ;
#11 = ADVANCED_FACE ( 'NONE', ( #146, #181 ), #144, .T. ) ;
#12 = EDGE_LOOP ( 'NONE', ( #67 ) ) ;
#13 = VERTEX_POINT ( 'NONE', #77 ) ;
#14 =( NAMED_UNIT ( * ) PLANE_ANGLE_UNIT ( ) SI_UNIT ( $, .RADIAN. ) );
#15 =( GEOMETRIC_REPRESENTATION_CONTEXT ( 3 ) GLOBAL_UNCERTAINTY_ASSIGNED_CONTEXT ( ( #3 ) ) GLOBAL_UNIT_ASSIGNED_CONTEXT ( ( #115, #145, #176 ) ) REPRESENTATION_CONTEXT ( 'NONE', 'WORKASPACE' ) );
#16 = ORIENTED_EDGE ( 'NONE', *, *, #168, .T. ) ;
#17 = AXIS2_PLACEMENT_3D ( 'NONE', #149, #199, #33 ) ;
#18 = FACE_OUTER_BOUND ( 'NONE', #194, .T. ) ;
#19 = ADVANCED_FACE ( 'NONE', ( #18 ), #109, .T. ) ;
#20 = AXIS2_PLACEMENT_3D ( 'NONE', #141, #53, #202 ) ;
#21 = ADVANCED_FACE ( 'NONE', ( #121 ), #107, .T. ) ;
#22 =( NAMED_UNIT ( * ) SI_UNIT ( $, .STERADIAN. ) SOLID_ANGLE_UNIT ( ) );
#23 = ADVANCED_FACE ( 'NONE', ( #185, #137 ), #164, .T. ) ;
#24 = CARTESIAN_POINT ( 'NONE',  ( -8.027626530599176989E-18, 1.923457917805172829E-34, 0.0000000000000000000 ) ) ;
#25 = ADVANCED_FACE ( 'NONE', ( #106, #215 ), #171, .T. ) ;
#26 = APPLICATION_CONTEXT ( 'automotive_design' ) ;
#27 = MECHANICAL_DESIGN_GEOMETRIC_PRESENTATION_REPRESENTATION (  '', ( #133 ), #83 ) ;
#28 = ADVANCED_FACE ( 'NONE', ( #110 ), #103, .T. ) ;
#29 = FILL_AREA_STYLE ('',( #221 ) ) ;
#30 = PRODUCT_DEFINITION_CONTEXT ( 'detailed design', #104, 'design' ) ;
#31 = AXIS2_PLACEMENT_3D ( 'NONE', #95, #191, #87 ) ;
#32 = CIRCLE ( 'NONE', #31, 1.500000000000000000 ) ;
#33 = DIRECTION ( 'NONE',  ( 0.0000000000000000000, 1.000000000000000000, 0.0000000000000000000 ) ) ;
#34 = VERTEX_POINT ( 'NONE', #46 ) ;
#35 = AXIS2_PLACEMENT_3D ( 'NONE', #92, #8, #112 ) ;
#36 = AXIS2_PLACEMENT_3D ( 'NONE', #138, #172, #123 ) ;
#37 = SURFACE_SIDE_STYLE ('',( #114 ) ) ;
#38 =( NAMED_UNIT ( * ) PLANE_ANGLE_UNIT ( ) SI_UNIT ( $, .RADIAN. ) );
#39 = DIRECTION ( 'NONE',  ( 0.0000000000000000000, 1.000000000000000000, 0.0000000000000000000 ) ) ;
#40 = ADVANCED_FACE ( 'NONE', ( #153 ), #55, .T. ) ;
#41 = EDGE_CURVE ( 'NONE', #130, #130, #186, .T. ) ;
#42 = DIRECTION ( 'NONE',  ( -1.000000000000000000, 2.108170890944037769E-16, 0.0000000000000000000 ) ) ;
#43 =( LENGTH_UNIT ( ) NAMED_UNIT ( * ) SI_UNIT ( .MILLI., .METRE. ) );
#44 = AXIS2_PLACEMENT_3D ( 'NONE', #24, #128, #70 ) ;
#45 = DIRECTION ( 'NONE',  ( 0.0000000000000000000, 1.000000000000000000, 0.0000000000000000000 ) ) ;
#46 = CARTESIAN_POINT ( 'NONE',  ( 37.39253175473054114, 0.8750000000000000000, 0.0000000000000000000 ) ) ;
#47 = EDGE_LOOP ( 'NONE', ( #94 ) ) ;
#48 = ORIENTED_EDGE ( 'NONE', *, *, #41, .F. ) ;
#49 = EDGE_CURVE ( 'NONE', #34, #34, #203, .T. ) ;
#50 = AXIS2_PLACEMENT_3D ( 'NONE', #214, #120, #131 ) ;
#51 = DIRECTION ( 'NONE',  ( -2.108170890944037769E-16, -1.000000000000000000, 0.0000000000000000000 ) ) ;
#52 = CIRCLE ( 'NONE', #218, 0.8649999999999973266 ) ;
#53 = DIRECTION ( 'NONE',  ( 1.000000000000000000, -2.108170890944037769E-16, -0.0000000000000000000 ) ) ;
#54 = EDGE_LOOP ( 'NONE', ( #163 ) ) ;
#55 = PLANE ( 'NONE',  #44 ) ;
#56 = CARTESIAN_POINT ( 'NONE',  ( 37.39253175473054114, -8.959430411500410333E-16, 0.0000000000000000000 ) ) ;
#57 = PRESENTATION_STYLE_ASSIGNMENT (( #140 ) ) ;
#58 = APPLICATION_PROTOCOL_DEFINITION ( 'draft international standard', 'automotive_design', 1998, #26 ) ;
#59 = DIRECTION ( 'NONE',  ( -1.000000000000000000, 2.108170890944037769E-16, 0.0000000000000000000 ) ) ;
#60 = PRESENTATION_LAYER_ASSIGNMENT (  '', '', ( #207 ) ) ;
#61 = FACE_OUTER_BOUND ( 'NONE', #89, .T. ) ;
#62 =( LENGTH_UNIT ( ) NAMED_UNIT ( * ) SI_UNIT ( .MILLI., .METRE. ) );
#63 = STYLED_ITEM ( 'NONE', ( #96 ), #129 ) ;
#64 = DIRECTION ( 'NONE',  ( 1.000000000000000000, -2.396048085288301227E-17, -0.0000000000000000000 ) ) ;
#65 = MECHANICAL_DESIGN_GEOMETRIC_PRESENTATION_REPRESENTATION (  '', ( #207 ), #126 ) ;
#66 = CYLINDRICAL_SURFACE ( 'NONE', #134, 0.8750000000000021094 ) ;
#67 = ORIENTED_EDGE ( 'NONE', *, *, #168, .F. ) ;
#68 = ORIENTED_EDGE ( 'NONE', *, *, #220, .F. ) ;
#69 = DIRECTION ( 'NONE',  ( 0.0000000000000000000, 1.000000000000000000, 0.0000000000000000000 ) ) ;
#70 = DIRECTION ( 'NONE',  ( -2.396048085288301227E-17, -1.000000000000000000, 0.0000000000000000000 ) ) ;
#71 = FACE_OUTER_BOUND ( 'NONE', #132, .T. ) ;
#72 = CARTESIAN_POINT ( 'NONE',  ( 46.00000000000000000, -1.102182119232618503E-15, 0.0000000000000000000 ) ) ;
#73 = EDGE_LOOP ( 'NONE', ( #1 ) ) ;
#74 = SURFACE_SIDE_STYLE ('',( #201 ) ) ;
#75 = ADVANCED_FACE ( 'NONE', ( #71, #222 ), #66, .T. ) ;
#76 = ORIENTED_EDGE ( 'NONE', *, *, #49, .F. ) ;
#77 = CARTESIAN_POINT ( 'NONE',  ( 0.6349999999999966782, 1.500000000000000000, 0.0000000000000000000 ) ) ;
#78 = CARTESIAN_POINT ( 'NONE',  ( 35.06000000000000227, 1.500000000000000000, 0.0000000000000000000 ) ) ;
#79 = VERTEX_POINT ( 'NONE', #175 ) ;
#80 = MANIFOLD_SOLID_BREP ( 'È¸Àü3', #7 ) ;
#81 = AXIS2_PLACEMENT_3D ( 'NONE', #208, #84, #6 ) ;
#82 = COLOUR_RGB ( '',0.7921568627450980005, 0.8196078431372548767, 0.9333333333333333481 ) ;
#83 =( GEOMETRIC_REPRESENTATION_CONTEXT ( 3 ) GLOBAL_UNCERTAINTY_ASSIGNED_CONTEXT ( ( #184 ) ) GLOBAL_UNIT_ASSIGNED_CONTEXT ( ( #43, #38, #22 ) ) REPRESENTATION_CONTEXT ( 'NONE', 'WORKASPACE' ) );
#84 = DIRECTION ( 'NONE',  ( 1.000000000000000000, -2.396048085288301227E-17, -0.0000000000000000000 ) ) ;
#85 = MECHANICAL_DESIGN_GEOMETRIC_PRESENTATION_REPRESENTATION (  '', ( #63 ), #15 ) ;
#86 = CIRCLE ( 'NONE', #17, 1.500000000000000888 ) ;
#87 = DIRECTION ( 'NONE',  ( 0.0000000000000000000, 1.000000000000000000, 0.0000000000000000000 ) ) ;
#88 = ADVANCED_FACE ( 'NONE', ( #204, #61 ), #193, .T. ) ;
#89 = EDGE_LOOP ( 'NONE', ( #105 ) ) ;
#90 =( NAMED_UNIT ( * ) PLANE_ANGLE_UNIT ( ) SI_UNIT ( $, .RADIAN. ) );
#91 = SURFACE_STYLE_USAGE ( .BOTH. , #99 ) ;
#92 = CARTESIAN_POINT ( 'NONE',  ( 0.0000000000000000000, 0.0000000000000000000, 0.0000000000000000000 ) ) ;
#93 = CARTESIAN_POINT ( 'NONE',  ( 0.0000000000000000000, 0.0000000000000000000, 0.0000000000000000000 ) ) ;
#94 = ORIENTED_EDGE ( 'NONE', *, *, #220, .T. ) ;
#95 = CARTESIAN_POINT ( 'NONE',  ( 0.6349999999999966782, -1.521490534158065434E-17, 0.0000000000000000000 ) ) ;
#96 = PRESENTATION_STYLE_ASSIGNMENT (( #160 ) ) ;
#97 = EDGE_LOOP ( 'NONE', ( #223 ) ) ;
#98 = DIRECTION ( 'NONE',  ( 0.0000000000000000000, 1.000000000000000000, 0.0000000000000000000 ) ) ;
#99 = SURFACE_SIDE_STYLE ('',( #173 ) ) ;
#100 = FILL_AREA_STYLE ('',( #205 ) ) ;
#101 = FILL_AREA_STYLE_COLOUR ( '', #190 ) ;
#102 = DIRECTION ( 'NONE',  ( -2.424528806163282486E-16, -1.000000000000000000, 0.0000000000000000000 ) ) ;
#103 = PLANE ( 'NONE',  #50 ) ;
#104 = APPLICATION_CONTEXT ( 'automotive_design' ) ;
#105 = ORIENTED_EDGE ( 'NONE', *, *, #187, .F. ) ;
#106 = FACE_BOUND ( 'NONE', #124, .T. ) ;
#107 = CONICAL_SURFACE ( 'NONE', #169, 2747.477419454642131, 1.221730476396033049 ) ;
#108 = EDGE_LOOP ( 'NONE', ( #174 ) ) ;
#109 = PLANE ( 'NONE',  #197 ) ;
#110 = FACE_OUTER_BOUND ( 'NONE', #108, .T. ) ;
#111 = UNCERTAINTY_MEASURE_WITH_UNIT (LENGTH_MEASURE( 1.000000000000000082E-05 ), #62, 'distance_accuracy_value', 'NONE');
#112 = DIRECTION ( 'NONE',  ( 1.000000000000000000, 0.0000000000000000000, 0.0000000000000000000 ) ) ;
#113 = CIRCLE ( 'NONE', #210, 0.8750000000000011102 ) ;
#114 = SURFACE_STYLE_FILL_AREA ( #159 ) ;
#115 =( LENGTH_UNIT ( ) NAMED_UNIT ( * ) SI_UNIT ( .MILLI., .METRE. ) );
#116 = ORIENTED_EDGE ( 'NONE', *, *, #161, .F. ) ;
#117 = CARTESIAN_POINT ( 'NONE',  ( 37.39253175473054114, -8.959430411500410333E-16, 0.0000000000000000000 ) ) ;
#118 = PRESENTATION_LAYER_ASSIGNMENT (  '', '', ( #63 ) ) ;
#119 = CARTESIAN_POINT ( 'NONE',  ( 54.99999999999999289, -2.999535921082251459E-15, 0.0000000000000000000 ) ) ;
#120 = DIRECTION ( 'NONE',  ( 1.000000000000000000, -2.396048085288301227E-17, -0.0000000000000000000 ) ) ;
#121 = FACE_OUTER_BOUND ( 'NONE', #47, .T. ) ;
#122 = CIRCLE ( 'NONE', #20, 0.8750000000000029976 ) ;
#123 = DIRECTION ( 'NONE',  ( 0.0000000000000000000, 1.000000000000000000, 0.0000000000000000000 ) ) ;
#124 = EDGE_LOOP ( 'NONE', ( #16 ) ) ;
#125 = EDGE_CURVE ( 'NONE', #135, #135, #86, .T. ) ;
#126 =( GEOMETRIC_REPRESENTATION_CONTEXT ( 3 ) GLOBAL_UNCERTAINTY_ASSIGNED_CONTEXT ( ( #143 ) ) GLOBAL_UNIT_ASSIGNED_CONTEXT ( ( #206, #90, #180 ) ) REPRESENTATION_CONTEXT ( 'NONE', 'WORKASPACE' ) );
#127 = CARTESIAN_POINT ( 'NONE',  ( -945.0000000000001137, 2.078175531733215227E-13, 0.0000000000000000000 ) ) ;
#128 = DIRECTION ( 'NONE',  ( -1.000000000000000000, 2.396048085288301227E-17, 0.0000000000000000000 ) ) ;
#129 = MANIFOLD_SOLID_BREP ( 'È¸Àü1', #198 ) ;
#130 = VERTEX_POINT ( 'NONE', #177 ) ;
#131 = DIRECTION ( 'NONE',  ( 2.396048085288301227E-17, 1.000000000000000000, 0.0000000000000000000 ) ) ;
#132 = EDGE_LOOP ( 'NONE', ( #5 ) ) ;
#133 = STYLED_ITEM ( 'NONE', ( #57 ), #80 ) ;
#134 = AXIS2_PLACEMENT_3D ( 'NONE', #119, #154, #39 ) ;
#135 = VERTEX_POINT ( 'NONE', #78 ) ;
#136 = DIRECTION ( 'NONE',  ( 1.000000000000000000, -2.396048085288301227E-17, -0.0000000000000000000 ) ) ;
#137 = FACE_BOUND ( 'NONE', #212, .T. ) ;
#138 = CARTESIAN_POINT ( 'NONE',  ( 46.00000000000000000, -1.102182119232618503E-15, 0.0000000000000000000 ) ) ;
#139 = VERTEX_POINT ( 'NONE', #157 ) ;
#140 = SURFACE_STYLE_USAGE ( .BOTH. , #74 ) ;
#141 = CARTESIAN_POINT ( 'NONE',  ( 54.68152604501706548, -2.932396168940368882E-15, 0.0000000000000000000 ) ) ;
#142 = DIRECTION ( 'NONE',  ( 1.000000000000000000, -2.396048085288301227E-17, -0.0000000000000000000 ) ) ;
#143 = UNCERTAINTY_MEASURE_WITH_UNIT (LENGTH_MEASURE( 1.000000000000000082E-05 ), #206, 'distance_accuracy_value', 'NONE');
#144 = CYLINDRICAL_SURFACE ( 'NONE', #182, 1.500000000000000444 ) ;
#145 =( NAMED_UNIT ( * ) PLANE_ANGLE_UNIT ( ) SI_UNIT ( $, .RADIAN. ) );
#146 = FACE_OUTER_BOUND ( 'NONE', #97, .T. ) ;
#147 = DIRECTION ( 'NONE',  ( 0.0000000000000000000, 1.000000000000000000, 0.0000000000000000000 ) ) ;
#148 = PRESENTATION_LAYER_ASSIGNMENT (  '', '', ( #133 ) ) ;
#149 = CARTESIAN_POINT ( 'NONE',  ( 35.06000000000000227, -8.400544587020784739E-16, 0.0000000000000000000 ) ) ;
#150 = VERTEX_POINT ( 'NONE', #178 ) ;
#151 = ORIENTED_EDGE ( 'NONE', *, *, #125, .F. ) ;
#152 = AXIS2_PLACEMENT_3D ( 'NONE', #117, #196, #192 ) ;
#153 = FACE_OUTER_BOUND ( 'NONE', #12, .T. ) ;
#154 = DIRECTION ( 'NONE',  ( 1.000000000000000000, -2.108170890944037769E-16, -0.0000000000000000000 ) ) ;
#155 =( NAMED_UNIT ( * ) SI_UNIT ( $, .STERADIAN. ) SOLID_ANGLE_UNIT ( ) );
#156 = EDGE_LOOP ( 'NONE', ( #151 ) ) ;
#157 = CARTESIAN_POINT ( 'NONE',  ( 2.072581593774374081E-17, 0.8649999999999973266, 0.0000000000000000000 ) ) ;
#158 =( GEOMETRIC_REPRESENTATION_CONTEXT ( 3 ) GLOBAL_UNCERTAINTY_ASSIGNED_CONTEXT ( ( #111 ) ) GLOBAL_UNIT_ASSIGNED_CONTEXT ( ( #62, #14, #155 ) ) REPRESENTATION_CONTEXT ( 'NONE', 'WORKASPACE' ) );
#159 = FILL_AREA_STYLE ('',( #101 ) ) ;
#160 = SURFACE_STYLE_USAGE ( .BOTH. , #37 ) ;
#161 = EDGE_CURVE ( 'NONE', #13, #13, #32, .T. ) ;
#162 = PRODUCT_DEFINITION_FORMATION_WITH_SPECIFIED_SOURCE ( 'ANY', '', #179, .NOT_KNOWN. ) ;
#163 = ORIENTED_EDGE ( 'NONE', *, *, #125, .T. ) ;
#164 = CONICAL_SURFACE ( 'NONE', #152, 0.8750000000000008882, 0.2617993877991502405 ) ;
#165 = ADVANCED_BREP_SHAPE_REPRESENTATION ( '03-1310', ( #129, #80, #35 ), #158 ) ;
#166 = PRODUCT_DEFINITION_SHAPE ( 'NONE', 'NONE',  #10 ) ;
#167 = EDGE_LOOP ( 'NONE', ( #68 ) ) ;
#168 = EDGE_CURVE ( 'NONE', #139, #139, #52, .T. ) ;
#169 = AXIS2_PLACEMENT_3D ( 'NONE', #127, #42, #102 ) ;
#170 = PRESENTATION_STYLE_ASSIGNMENT (( #91 ) ) ;
#171 = CONICAL_SURFACE ( 'NONE', #81, 1.500000000000000000, 0.7853981633974530530 ) ;
#172 = DIRECTION ( 'NONE',  ( 1.000000000000000000, -2.396048085288301227E-17, -0.0000000000000000000 ) ) ;
#173 = SURFACE_STYLE_FILL_AREA ( #29 ) ;
#174 = ORIENTED_EDGE ( 'NONE', *, *, #187, .T. ) ;
#175 = CARTESIAN_POINT ( 'NONE',  ( 54.68152604501706548, 0.8750000000000000000, 0.0000000000000000000 ) ) ;
#176 =( NAMED_UNIT ( * ) SI_UNIT ( $, .STERADIAN. ) SOLID_ANGLE_UNIT ( ) );
#177 = CARTESIAN_POINT ( 'NONE',  ( 46.00000000000000000, 0.8750000000000001110, 0.0000000000000000000 ) ) ;
#178 = CARTESIAN_POINT ( 'NONE',  ( 46.00000000000000000, 0.8750000000000000000, 0.0000000000000000000 ) ) ;
#179 = PRODUCT ( '03-1310', '03-1310', '', ( #217 ) ) ;
#180 =( NAMED_UNIT ( * ) SI_UNIT ( $, .STERADIAN. ) SOLID_ANGLE_UNIT ( ) );
#181 = FACE_OUTER_BOUND ( 'NONE', #156, .T. ) ;
#182 = AXIS2_PLACEMENT_3D ( 'NONE', #219, #188, #98 ) ;
#183 = DIRECTION ( 'NONE',  ( 1.000000000000000000, -2.108170890944037769E-16, -0.0000000000000000000 ) ) ;
#184 = UNCERTAINTY_MEASURE_WITH_UNIT (LENGTH_MEASURE( 1.000000000000000082E-05 ), #43, 'distance_accuracy_value', 'NONE');
#185 = FACE_OUTER_BOUND ( 'NONE', #54, .T. ) ;
#186 = CIRCLE ( 'NONE', #189, 0.8750000000000012212 ) ;
#187 = EDGE_CURVE ( 'NONE', #150, #150, #113, .T. ) ;
#188 = DIRECTION ( 'NONE',  ( 1.000000000000000000, -2.396048085288301227E-17, -0.0000000000000000000 ) ) ;
#189 = AXIS2_PLACEMENT_3D ( 'NONE', #209, #183, #45 ) ;
#190 = COLOUR_RGB ( '',0.5019607843137254832, 0.5019607843137254832, 0.5019607843137254832 ) ;
#191 = DIRECTION ( 'NONE',  ( 1.000000000000000000, -2.396048085288301227E-17, -0.0000000000000000000 ) ) ;
#192 = DIRECTION ( 'NONE',  ( 0.0000000000000000000, -1.000000000000000000, 0.0000000000000000000 ) ) ;
#193 = CYLINDRICAL_SURFACE ( 'NONE', #36, 0.8750000000000009992 ) ;
#194 = EDGE_LOOP ( 'NONE', ( #48 ) ) ;
#195 = DIRECTION ( 'NONE',  ( 2.396048085288301227E-17, 1.000000000000000000, 0.0000000000000000000 ) ) ;
#196 = DIRECTION ( 'NONE',  ( -1.000000000000000000, 2.396048085288301227E-17, 0.0000000000000000000 ) ) ;
#197 = AXIS2_PLACEMENT_3D ( 'NONE', #213, #59, #51 ) ;
#198 = CLOSED_SHELL ( 'NONE', ( #40, #25, #11, #23, #88, #28 ) ) ;
#199 = DIRECTION ( 'NONE',  ( 1.000000000000000000, -2.396048085288301227E-17, -0.0000000000000000000 ) ) ;
#200 = AXIS2_PLACEMENT_3D ( 'NONE', #56, #64, #147 ) ;
#201 = SURFACE_STYLE_FILL_AREA ( #100 ) ;
#202 = DIRECTION ( 'NONE',  ( 0.0000000000000000000, 1.000000000000000000, 0.0000000000000000000 ) ) ;
#203 = CIRCLE ( 'NONE', #200, 0.8750000000000008882 ) ;
#204 = FACE_OUTER_BOUND ( 'NONE', #73, .T. ) ;
#205 = FILL_AREA_STYLE_COLOUR ( '', #9 ) ;
#206 =( LENGTH_UNIT ( ) NAMED_UNIT ( * ) SI_UNIT ( .MILLI., .METRE. ) );
#207 = STYLED_ITEM ( 'NONE', ( #170 ), #165 ) ;
#208 = CARTESIAN_POINT ( 'NONE',  ( 0.6349999999999966782, -1.521490534158065434E-17, 0.0000000000000000000 ) ) ;
#209 = CARTESIAN_POINT ( 'NONE',  ( 46.00000000000000000, -1.102182119232618503E-15, 0.0000000000000000000 ) ) ;
#210 = AXIS2_PLACEMENT_3D ( 'NONE', #72, #136, #69 ) ;
#211 = SHAPE_DEFINITION_REPRESENTATION ( #166, #165 ) ;
#212 = EDGE_LOOP ( 'NONE', ( #76 ) ) ;
#213 = CARTESIAN_POINT ( 'NONE',  ( 46.00000000000000000, -1.102182119232618503E-15, 0.0000000000000000000 ) ) ;
#214 = CARTESIAN_POINT ( 'NONE',  ( 46.00000000000000000, 0.8750000000000000000, 0.0000000000000000000 ) ) ;
#215 = FACE_OUTER_BOUND ( 'NONE', #4, .T. ) ;
#216 = PRODUCT_RELATED_PRODUCT_CATEGORY ( 'part', '', ( #179 ) ) ;
#217 = PRODUCT_CONTEXT ( 'NONE', #26, 'mechanical' ) ;
#218 = AXIS2_PLACEMENT_3D ( 'NONE', #93, #142, #195 ) ;
#219 = CARTESIAN_POINT ( 'NONE',  ( 46.00000000000000000, -1.102182119232618503E-15, 0.0000000000000000000 ) ) ;
#220 = EDGE_CURVE ( 'NONE', #79, #79, #122, .T. ) ;
#221 = FILL_AREA_STYLE_COLOUR ( '', #82 ) ;
#222 = FACE_OUTER_BOUND ( 'NONE', #167, .T. ) ;
#223 = ORIENTED_EDGE ( 'NONE', *, *, #161, .T. ) ;
ENDSEC;
END-ISO-10303-21;
