ISO-10303-21;
HEADER;
FILE_DESCRIPTION (( 'STEP AP214' ),
    '1' );
FILE_NAME ('03-1616.STEP',
    '2021-10-01T05:00:05',
    ( 'USER' ),
    ( '' ),
    'SwSTEP 2.0',
    'SolidWorks 2018',
    '' );
FILE_SCHEMA (( 'AUTOMOTIVE_DESIGN' ));
ENDSEC;

DATA;
#1 = ORIENTED_EDGE ( 'NONE', *, *, #127, .T. ) ;
#2 = CARTESIAN_POINT ( 'NONE',  ( 22.00000000000000355, 0.0000000000000000000, -0.5000000000000019984 ) ) ;
#3 = AXIS2_PLACEMENT_3D ( 'NONE', #170, #34, #152 ) ;
#4 = CARTESIAN_POINT ( 'NONE',  ( 0.0000000000000000000, 0.0000000000000000000, 0.0000000000000000000 ) ) ;
#5 = DIRECTION ( 'NONE',  ( 0.0000000000000000000, 0.0000000000000000000, -1.000000000000000000 ) ) ;
#6 = EDGE_LOOP ( 'NONE', ( #134 ) ) ;
#7 = DIRECTION ( 'NONE',  ( 1.000000000000000000, 0.0000000000000000000, 0.0000000000000000000 ) ) ;
#8 = PRESENTATION_LAYER_ASSIGNMENT (  '', '', ( #194 ) ) ;
#9 = DIRECTION ( 'NONE',  ( 1.000000000000000000, 0.0000000000000000000, 0.0000000000000000000 ) ) ;
#10 = AXIS2_PLACEMENT_3D ( 'NONE', #119, #30, #202 ) ;
#11 = FACE_OUTER_BOUND ( 'NONE', #64, .T. ) ;
#12 = CARTESIAN_POINT ( 'NONE',  ( -3.061616997868386099E-17, 0.0000000000000000000, -0.3999999999999941380 ) ) ;
#13 =( NAMED_UNIT ( * ) PLANE_ANGLE_UNIT ( ) SI_UNIT ( $, .RADIAN. ) );
#14 = APPLICATION_PROTOCOL_DEFINITION ( 'draft international standard', 'automotive_design', 1998, #56 ) ;
#15 =( GEOMETRIC_REPRESENTATION_CONTEXT ( 3 ) GLOBAL_UNCERTAINTY_ASSIGNED_CONTEXT ( ( #193 ) ) GLOBAL_UNIT_ASSIGNED_CONTEXT ( ( #133, #169, #90 ) ) REPRESENTATION_CONTEXT ( 'NONE', 'WORKASPACE' ) );
#16 = PRESENTATION_STYLE_ASSIGNMENT (( #78 ) ) ;
#17 = CIRCLE ( 'NONE', #132, 0.5000000000000019984 ) ;
#18 = EDGE_LOOP ( 'NONE', ( #1 ) ) ;
#19 = ADVANCED_FACE ( 'NONE', ( #54 ), #167, .F. ) ;
#20 = CIRCLE ( 'NONE', #43, 0.5000000000000038858 ) ;
#21 = PRODUCT_RELATED_PRODUCT_CATEGORY ( 'part', '', ( #86 ) ) ;
#22 = ORIENTED_EDGE ( 'NONE', *, *, #76, .F. ) ;
#23 = VERTEX_POINT ( 'NONE', #61 ) ;
#24 = CIRCLE ( 'NONE', #3, 0.5000000000000019984 ) ;
#25 = STYLED_ITEM ( 'NONE', ( #104 ), #126 ) ;
#26 =( NAMED_UNIT ( * ) SI_UNIT ( $, .STERADIAN. ) SOLID_ANGLE_UNIT ( ) );
#27 = CLOSED_SHELL ( 'NONE', ( #176, #210, #126 ) ) ;
#28 = APPLICATION_PROTOCOL_DEFINITION ( 'draft international standard', 'automotive_design', 1998, #33 ) ;
#29 =( NAMED_UNIT ( * ) PLANE_ANGLE_UNIT ( ) SI_UNIT ( $, .RADIAN. ) );
#30 = DIRECTION ( 'NONE',  ( -1.000000000000000000, -0.0000000000000000000, -0.0000000000000000000 ) ) ;
#31 = UNCERTAINTY_MEASURE_WITH_UNIT (LENGTH_MEASURE( 1.000000000000000082E-05 ), #188, 'distance_accuracy_value', 'NONE');
#32 = DIRECTION ( 'NONE',  ( 0.0000000000000000000, 0.0000000000000000000, 1.000000000000000000 ) ) ;
#33 = APPLICATION_CONTEXT ( 'automotive_design' ) ;
#34 = DIRECTION ( 'NONE',  ( 1.000000000000000000, 0.0000000000000000000, 0.0000000000000000000 ) ) ;
#35 = STYLED_ITEM ( 'NONE', ( #16 ), #40 ) ;
#36 = CLOSED_SHELL ( 'NONE', ( #94, #19, #160, #38 ) ) ;
#37 = SURFACE_SIDE_STYLE ('',( #96 ) ) ;
#38 = ADVANCED_FACE ( 'NONE', ( #93 ), #83, .T. ) ;
#39 = PRESENTATION_LAYER_ASSIGNMENT (  '', '', ( #25 ) ) ;
#40 = MANIFOLD_SOLID_BREP ( 'ºÐÇÒ2[1]', #36 ) ;
#41 = VERTEX_POINT ( 'NONE', #2 ) ;
#42 = COLOUR_RGB ( '',1.000000000000000000, 1.000000000000000000, 0.0000000000000000000 ) ;
#43 = AXIS2_PLACEMENT_3D ( 'NONE', #47, #120, #32 ) ;
#44 = SHAPE_DEFINITION_REPRESENTATION ( #51, #145 ) ;
#45 = DIRECTION ( 'NONE',  ( 0.0000000000000000000, 0.0000000000000000000, -1.000000000000000000 ) ) ;
#46 = DIRECTION ( 'NONE',  ( 0.0000000000000000000, 0.0000000000000000000, -1.000000000000000000 ) ) ;
#47 = CARTESIAN_POINT ( 'NONE',  ( 33.79289321881346098, 0.0000000000000000000, 0.0000000000000000000 ) ) ;
#48 = CARTESIAN_POINT ( 'NONE',  ( 0.1000000000000093453, 0.0000000000000000000, -0.5000000000000019984 ) ) ;
#49 = FILL_AREA_STYLE ('',( #106 ) ) ;
#50 =( LENGTH_UNIT ( ) NAMED_UNIT ( * ) SI_UNIT ( .MILLI., .METRE. ) );
#51 = PRODUCT_DEFINITION_SHAPE ( 'NONE', 'NONE',  #130 ) ;
#52 = ORIENTED_EDGE ( 'NONE', *, *, #108, .F. ) ;
#53 = PRESENTATION_LAYER_ASSIGNMENT (  '', '', ( #80 ) ) ;
#54 = FACE_OUTER_BOUND ( 'NONE', #199, .T. ) ;
#55 = PRESENTATION_LAYER_ASSIGNMENT (  '', '', ( #35 ) ) ;
#56 = APPLICATION_CONTEXT ( 'automotive_design' ) ;
#57 = DIRECTION ( 'NONE',  ( 1.000000000000000000, 0.0000000000000000000, 0.0000000000000000000 ) ) ;
#58 = CARTESIAN_POINT ( 'NONE',  ( 22.00000000000000355, 0.0000000000000000000, 0.0000000000000000000 ) ) ;
#59 = CARTESIAN_POINT ( 'NONE',  ( 22.00000000000000355, 0.0000000000000000000, 0.0000000000000000000 ) ) ;
#60 = FACE_OUTER_BOUND ( 'NONE', #67, .T. ) ;
#61 = CARTESIAN_POINT ( 'NONE',  ( 33.79289321881346098, 0.0000000000000000000, 0.5000000000000038858 ) ) ;
#62 = SURFACE_SIDE_STYLE ('',( #141 ) ) ;
#63 =( NAMED_UNIT ( * ) PLANE_ANGLE_UNIT ( ) SI_UNIT ( $, .RADIAN. ) );
#64 = EDGE_LOOP ( 'NONE', ( #52 ) ) ;
#65 = MANIFOLD_SOLID_BREP ( 'ºÐÇÒ2[2]', #27 ) ;
#66 = COLOUR_RGB ( '',1.000000000000000000, 1.000000000000000000, 0.0000000000000000000 ) ;
#67 = EDGE_LOOP ( 'NONE', ( #22 ) ) ;
#68 = UNCERTAINTY_MEASURE_WITH_UNIT (LENGTH_MEASURE( 1.000000000000000082E-05 ), #102, 'distance_accuracy_value', 'NONE');
#69 = PRODUCT_CONTEXT ( 'NONE', #33, 'mechanical' ) ;
#70 = MECHANICAL_DESIGN_GEOMETRIC_PRESENTATION_REPRESENTATION (  '', ( #80 ), #205 ) ;
#71 = DIRECTION ( 'NONE',  ( 0.0000000000000000000, 0.0000000000000000000, 1.000000000000000000 ) ) ;
#72 = ORIENTED_EDGE ( 'NONE', *, *, #76, .T. ) ;
#73 = DIRECTION ( 'NONE',  ( 1.000000000000000000, 0.0000000000000000000, 0.0000000000000000000 ) ) ;
#74 = FILL_AREA_STYLE_COLOUR ( '', #189 ) ;
#75 = DIRECTION ( 'NONE',  ( -1.000000000000000000, -0.0000000000000000000, -0.0000000000000000000 ) ) ;
#76 = EDGE_CURVE ( 'NONE', #23, #23, #20, .T. ) ;
#77 = SURFACE_STYLE_USAGE ( .BOTH. , #62 ) ;
#78 = SURFACE_STYLE_USAGE ( .BOTH. , #164 ) ;
#79 = DIRECTION ( 'NONE',  ( 0.0000000000000000000, 0.0000000000000000000, -1.000000000000000000 ) ) ;
#80 = STYLED_ITEM ( 'NONE', ( #82 ), #65 ) ;
#81 = PRESENTATION_STYLE_ASSIGNMENT (( #140 ) ) ;
#82 = PRESENTATION_STYLE_ASSIGNMENT (( #77 ) ) ;
#83 = PLANE ( 'NONE',  #182 ) ;
#84 = DIRECTION ( 'NONE',  ( 1.000000000000000000, 0.0000000000000000000, 0.0000000000000000000 ) ) ;
#85 = PRESENTATION_STYLE_ASSIGNMENT (( #109 ) ) ;
#86 = PRODUCT ( '03-1616', '03-1616', '', ( #69 ) ) ;
#87 = SURFACE_SIDE_STYLE ('',( #136 ) ) ;
#88 = VERTEX_POINT ( 'NONE', #48 ) ;
#89 = CARTESIAN_POINT ( 'NONE',  ( -966.0000000000000000, 0.0000000000000000000, 0.0000000000000000000 ) ) ;
#90 =( NAMED_UNIT ( * ) SI_UNIT ( $, .STERADIAN. ) SOLID_ANGLE_UNIT ( ) );
#91 = DIRECTION ( 'NONE',  ( -1.000000000000000000, -0.0000000000000000000, -0.0000000000000000000 ) ) ;
#92 = DIRECTION ( 'NONE',  ( 0.0000000000000000000, 0.0000000000000000000, 1.000000000000000000 ) ) ;
#93 = FACE_OUTER_BOUND ( 'NONE', #113, .T. ) ;
#94 = ADVANCED_FACE ( 'NONE', ( #180, #11 ), #144, .T. ) ;
#95 = EDGE_CURVE ( 'NONE', #88, #88, #185, .T. ) ;
#96 = SURFACE_STYLE_FILL_AREA ( #124 ) ;
#97 = COLOUR_RGB ( '',0.7921568627450980005, 0.8196078431372548767, 0.9333333333333333481 ) ;
#98 = UNCERTAINTY_MEASURE_WITH_UNIT (LENGTH_MEASURE( 1.000000000000000082E-05 ), #172, 'distance_accuracy_value', 'NONE');
#99 = CIRCLE ( 'NONE', #10, 0.3999999999999941380 ) ;
#100 = FILL_AREA_STYLE ('',( #74 ) ) ;
#101 =( NAMED_UNIT ( * ) SI_UNIT ( $, .STERADIAN. ) SOLID_ANGLE_UNIT ( ) );
#102 =( LENGTH_UNIT ( ) NAMED_UNIT ( * ) SI_UNIT ( .MILLI., .METRE. ) );
#103 = FILL_AREA_STYLE ('',( #204 ) ) ;
#104 = PRESENTATION_STYLE_ASSIGNMENT (( #151 ) ) ;
#105 = DIRECTION ( 'NONE',  ( -1.000000000000000000, -0.0000000000000000000, -0.0000000000000000000 ) ) ;
#106 = FILL_AREA_STYLE_COLOUR ( '', #42 ) ;
#107 = UNCERTAINTY_MEASURE_WITH_UNIT (LENGTH_MEASURE( 1.000000000000000082E-05 ), #121, 'distance_accuracy_value', 'NONE');
#108 = EDGE_CURVE ( 'NONE', #208, #208, #24, .T. ) ;
#109 = SURFACE_STYLE_USAGE ( .BOTH. , #187 ) ;
#110 =( NAMED_UNIT ( * ) PLANE_ANGLE_UNIT ( ) SI_UNIT ( $, .RADIAN. ) );
#111 = FILL_AREA_STYLE_COLOUR ( '', #97 ) ;
#112 = AXIS2_PLACEMENT_3D ( 'NONE', #183, #73, #5 ) ;
#113 = EDGE_LOOP ( 'NONE', ( #147 ) ) ;
#114 = EDGE_CURVE ( 'NONE', #115, #115, #99, .T. ) ;
#115 = VERTEX_POINT ( 'NONE', #12 ) ;
#116 = CARTESIAN_POINT ( 'NONE',  ( -3.061616997868386099E-17, 0.5000000000000000000, 0.0000000000000000000 ) ) ;
#117 = AXIS2_PLACEMENT_3D ( 'NONE', #4, #198, #84 ) ;
#118 = FACE_OUTER_BOUND ( 'NONE', #131, .T. ) ;
#119 = CARTESIAN_POINT ( 'NONE',  ( -3.061616997868386099E-17, 0.0000000000000000000, 0.0000000000000000000 ) ) ;
#120 = DIRECTION ( 'NONE',  ( -1.000000000000000000, -0.0000000000000000000, -0.0000000000000000000 ) ) ;
#121 =( LENGTH_UNIT ( ) NAMED_UNIT ( * ) SI_UNIT ( .MILLI., .METRE. ) );
#122 = FILL_AREA_STYLE_COLOUR ( '', #213 ) ;
#123 = AXIS2_PLACEMENT_3D ( 'NONE', #89, #75, #71 ) ;
#124 = FILL_AREA_STYLE ('',( #111 ) ) ;
#125 = ORIENTED_EDGE ( 'NONE', *, *, #114, .T. ) ;
#126 = ADVANCED_FACE ( 'NONE', ( #60 ), #165, .T. ) ;
#127 = EDGE_CURVE ( 'NONE', #41, #41, #17, .T. ) ;
#128 = SURFACE_STYLE_FILL_AREA ( #100 ) ;
#129 = FACE_BOUND ( 'NONE', #162, .T. ) ;
#130 = PRODUCT_DEFINITION ( 'UNKNOWN', '', #150, #200 ) ;
#131 = EDGE_LOOP ( 'NONE', ( #72 ) ) ;
#132 = AXIS2_PLACEMENT_3D ( 'NONE', #58, #57, #45 ) ;
#133 =( LENGTH_UNIT ( ) NAMED_UNIT ( * ) SI_UNIT ( .MILLI., .METRE. ) );
#134 = ORIENTED_EDGE ( 'NONE', *, *, #95, .T. ) ;
#135 =( NAMED_UNIT ( * ) SI_UNIT ( $, .STERADIAN. ) SOLID_ANGLE_UNIT ( ) );
#136 = SURFACE_STYLE_FILL_AREA ( #103 ) ;
#137 = DIRECTION ( 'NONE',  ( 0.0000000000000000000, 0.0000000000000000000, 1.000000000000000000 ) ) ;
#138 = PLANE ( 'NONE',  #209 ) ;
#139 = CARTESIAN_POINT ( 'NONE',  ( 0.0000000000000000000, 0.0000000000000000000, 0.0000000000000000000 ) ) ;
#140 = SURFACE_STYLE_USAGE ( .BOTH. , #37 ) ;
#141 = SURFACE_STYLE_FILL_AREA ( #171 ) ;
#142 = AXIS2_PLACEMENT_3D ( 'NONE', #116, #173, #79 ) ;
#143 = CYLINDRICAL_SURFACE ( 'NONE', #212, 0.5000000000000019984 ) ;
#144 = CYLINDRICAL_SURFACE ( 'NONE', #211, 0.5000000000000019984 ) ;
#145 = ADVANCED_BREP_SHAPE_REPRESENTATION ( '03-1616', ( #40, #65, #117 ), #15 ) ;
#146 = MECHANICAL_DESIGN_GEOMETRIC_PRESENTATION_REPRESENTATION (  '', ( #163 ), #157 ) ;
#147 = ORIENTED_EDGE ( 'NONE', *, *, #108, .T. ) ;
#148 = ORIENTED_EDGE ( 'NONE', *, *, #127, .F. ) ;
#149 = DIRECTION ( 'NONE',  ( 1.000000000000000000, 0.0000000000000000000, 0.0000000000000000000 ) ) ;
#150 = PRODUCT_DEFINITION_FORMATION_WITH_SPECIFIED_SOURCE ( 'ANY', '', #86, .NOT_KNOWN. ) ;
#151 = SURFACE_STYLE_USAGE ( .BOTH. , #87 ) ;
#152 = DIRECTION ( 'NONE',  ( 0.0000000000000000000, 0.0000000000000000000, -1.000000000000000000 ) ) ;
#153 = CARTESIAN_POINT ( 'NONE',  ( 22.00000000000000355, 0.0000000000000000000, 0.0000000000000000000 ) ) ;
#154 = DIRECTION ( 'NONE',  ( 0.0000000000000000000, 0.0000000000000000000, -1.000000000000000000 ) ) ;
#155 = ORIENTED_EDGE ( 'NONE', *, *, #95, .F. ) ;
#156 =( NAMED_UNIT ( * ) SI_UNIT ( $, .STERADIAN. ) SOLID_ANGLE_UNIT ( ) );
#157 =( GEOMETRIC_REPRESENTATION_CONTEXT ( 3 ) GLOBAL_UNCERTAINTY_ASSIGNED_CONTEXT ( ( #181 ) ) GLOBAL_UNIT_ASSIGNED_CONTEXT ( ( #50, #158, #26 ) ) REPRESENTATION_CONTEXT ( 'NONE', 'WORKASPACE' ) );
#158 =( NAMED_UNIT ( * ) PLANE_ANGLE_UNIT ( ) SI_UNIT ( $, .RADIAN. ) );
#159 = FACE_OUTER_BOUND ( 'NONE', #18, .T. ) ;
#160 = ADVANCED_FACE ( 'NONE', ( #201, #129 ), #206, .T. ) ;
#161 =( GEOMETRIC_REPRESENTATION_CONTEXT ( 3 ) GLOBAL_UNCERTAINTY_ASSIGNED_CONTEXT ( ( #98 ) ) GLOBAL_UNIT_ASSIGNED_CONTEXT ( ( #172, #63, #156 ) ) REPRESENTATION_CONTEXT ( 'NONE', 'WORKASPACE' ) );
#162 = EDGE_LOOP ( 'NONE', ( #191 ) ) ;
#163 = STYLED_ITEM ( 'NONE', ( #81 ), #145 ) ;
#164 = SURFACE_SIDE_STYLE ('',( #128 ) ) ;
#165 = CONICAL_SURFACE ( 'NONE', #123, 2414.213562373147852, 1.178097245096180190 ) ;
#166 = EDGE_LOOP ( 'NONE', ( #148 ) ) ;
#167 = PLANE ( 'NONE',  #142 ) ;
#168 = CARTESIAN_POINT ( 'NONE',  ( 0.1000000000000093453, 0.0000000000000000000, 0.0000000000000000000 ) ) ;
#169 =( NAMED_UNIT ( * ) PLANE_ANGLE_UNIT ( ) SI_UNIT ( $, .RADIAN. ) );
#170 = CARTESIAN_POINT ( 'NONE',  ( 22.00000000000000355, 0.0000000000000000000, 0.0000000000000000000 ) ) ;
#171 = FILL_AREA_STYLE ('',( #122 ) ) ;
#172 =( LENGTH_UNIT ( ) NAMED_UNIT ( * ) SI_UNIT ( .MILLI., .METRE. ) );
#173 = DIRECTION ( 'NONE',  ( 1.000000000000000000, 0.0000000000000000000, 0.0000000000000000000 ) ) ;
#174 = FACE_OUTER_BOUND ( 'NONE', #166, .T. ) ;
#175 = MECHANICAL_DESIGN_GEOMETRIC_PRESENTATION_REPRESENTATION (  '', ( #35 ), #161 ) ;
#176 = ADVANCED_FACE ( 'NONE', ( #174 ), #138, .F. ) ;
#177 = MECHANICAL_DESIGN_GEOMETRIC_PRESENTATION_REPRESENTATION (  '', ( #25 ), #184 ) ;
#178 = PRESENTATION_LAYER_ASSIGNMENT (  '', '', ( #163 ) ) ;
#179 = SURFACE_STYLE_FILL_AREA ( #49 ) ;
#180 = FACE_OUTER_BOUND ( 'NONE', #6, .T. ) ;
#181 = UNCERTAINTY_MEASURE_WITH_UNIT (LENGTH_MEASURE( 1.000000000000000082E-05 ), #50, 'distance_accuracy_value', 'NONE');
#182 = AXIS2_PLACEMENT_3D ( 'NONE', #59, #7, #192 ) ;
#183 = CARTESIAN_POINT ( 'NONE',  ( -3.061616997868386099E-17, 0.0000000000000000000, 0.0000000000000000000 ) ) ;
#184 =( GEOMETRIC_REPRESENTATION_CONTEXT ( 3 ) GLOBAL_UNCERTAINTY_ASSIGNED_CONTEXT ( ( #68 ) ) GLOBAL_UNIT_ASSIGNED_CONTEXT ( ( #102, #29, #135 ) ) REPRESENTATION_CONTEXT ( 'NONE', 'WORKASPACE' ) );
#185 = CIRCLE ( 'NONE', #197, 0.5000000000000019984 ) ;
#186 = CARTESIAN_POINT ( 'NONE',  ( 22.00000000000000355, 0.0000000000000000000, -0.5000000000000019984 ) ) ;
#187 = SURFACE_SIDE_STYLE ('',( #179 ) ) ;
#188 =( LENGTH_UNIT ( ) NAMED_UNIT ( * ) SI_UNIT ( .MILLI., .METRE. ) );
#189 = COLOUR_RGB ( '',0.7921568627450980005, 0.8196078431372548767, 0.9333333333333333481 ) ;
#190 =( GEOMETRIC_REPRESENTATION_CONTEXT ( 3 ) GLOBAL_UNCERTAINTY_ASSIGNED_CONTEXT ( ( #107 ) ) GLOBAL_UNIT_ASSIGNED_CONTEXT ( ( #121, #13, #101 ) ) REPRESENTATION_CONTEXT ( 'NONE', 'WORKASPACE' ) );
#191 = ORIENTED_EDGE ( 'NONE', *, *, #114, .F. ) ;
#192 = DIRECTION ( 'NONE',  ( 0.0000000000000000000, 0.0000000000000000000, -1.000000000000000000 ) ) ;
#193 = UNCERTAINTY_MEASURE_WITH_UNIT (LENGTH_MEASURE( 1.000000000000000082E-05 ), #133, 'distance_accuracy_value', 'NONE');
#194 = STYLED_ITEM ( 'NONE', ( #85 ), #210 ) ;
#195 = EDGE_LOOP ( 'NONE', ( #155 ) ) ;
#196 = MECHANICAL_DESIGN_GEOMETRIC_PRESENTATION_REPRESENTATION (  '', ( #194 ), #190 ) ;
#197 = AXIS2_PLACEMENT_3D ( 'NONE', #168, #9, #46 ) ;
#198 = DIRECTION ( 'NONE',  ( 0.0000000000000000000, 0.0000000000000000000, 1.000000000000000000 ) ) ;
#199 = EDGE_LOOP ( 'NONE', ( #125 ) ) ;
#200 = PRODUCT_DEFINITION_CONTEXT ( 'detailed design', #56, 'design' ) ;
#201 = FACE_OUTER_BOUND ( 'NONE', #195, .T. ) ;
#202 = DIRECTION ( 'NONE',  ( 0.0000000000000000000, 0.0000000000000000000, -1.000000000000000000 ) ) ;
#203 = CARTESIAN_POINT ( 'NONE',  ( 0.0000000000000000000, 0.0000000000000000000, 0.0000000000000000000 ) ) ;
#204 = FILL_AREA_STYLE_COLOUR ( '', #66 ) ;
#205 =( GEOMETRIC_REPRESENTATION_CONTEXT ( 3 ) GLOBAL_UNCERTAINTY_ASSIGNED_CONTEXT ( ( #31 ) ) GLOBAL_UNIT_ASSIGNED_CONTEXT ( ( #188, #110, #207 ) ) REPRESENTATION_CONTEXT ( 'NONE', 'WORKASPACE' ) );
#206 = CONICAL_SURFACE ( 'NONE', #112, 0.3999999999999941380, 0.7853981633974407295 ) ;
#207 =( NAMED_UNIT ( * ) SI_UNIT ( $, .STERADIAN. ) SOLID_ANGLE_UNIT ( ) );
#208 = VERTEX_POINT ( 'NONE', #186 ) ;
#209 = AXIS2_PLACEMENT_3D ( 'NONE', #153, #149, #154 ) ;
#210 = ADVANCED_FACE ( 'NONE', ( #159, #118 ), #143, .T. ) ;
#211 = AXIS2_PLACEMENT_3D ( 'NONE', #139, #105, #92 ) ;
#212 = AXIS2_PLACEMENT_3D ( 'NONE', #203, #91, #137 ) ;
#213 = COLOUR_RGB ( '',0.7921568627450980005, 0.8196078431372548767, 0.9333333333333333481 ) ;
ENDSEC;
END-ISO-10303-21;
