ISO-10303-21;
HEADER;
FILE_DESCRIPTION (( 'STEP AP214' ),
    '1' );
FILE_NAME ('03-1617.STEP',
    '2021-10-01T05:00:19',
    ( 'USER' ),
    ( '' ),
    'SwSTEP 2.0',
    'SolidWorks 2018',
    '' );
FILE_SCHEMA (( 'AUTOMOTIVE_DESIGN' ));
ENDSEC;

DATA;
#1 = CONICAL_SURFACE ( 'NONE', #11, 2414.213562373104196, 1.178097245096173751 ) ;
#2 = DIRECTION ( 'NONE',  ( 1.000000000000000000, 0.0000000000000000000, 0.0000000000000000000 ) ) ;
#3 =( GEOMETRIC_REPRESENTATION_CONTEXT ( 3 ) GLOBAL_UNCERTAINTY_ASSIGNED_CONTEXT ( ( #129 ) ) GLOBAL_UNIT_ASSIGNED_CONTEXT ( ( #17, #98, #83 ) ) REPRESENTATION_CONTEXT ( 'NONE', 'WORKASPACE' ) );
#4 = PRODUCT_CONTEXT ( 'NONE', #149, 'mechanical' ) ;
#5 = APPLICATION_CONTEXT ( 'automotive_design' ) ;
#6 = EDGE_LOOP ( 'NONE', ( #184 ) ) ;
#7 = VERTEX_POINT ( 'NONE', #167 ) ;
#8 = CARTESIAN_POINT ( 'NONE',  ( -3.367778697655220026E-17, 0.0000000000000000000, 0.0000000000000000000 ) ) ;
#9 = AXIS2_PLACEMENT_3D ( 'NONE', #190, #66, #52 ) ;
#10 = APPLICATION_PROTOCOL_DEFINITION ( 'draft international standard', 'automotive_design', 1998, #5 ) ;
#11 = AXIS2_PLACEMENT_3D ( 'NONE', #27, #42, #59 ) ;
#12 = DIRECTION ( 'NONE',  ( 0.0000000000000000000, 0.0000000000000000000, 1.000000000000000000 ) ) ;
#13 = EDGE_LOOP ( 'NONE', ( #142 ) ) ;
#14 = FILL_AREA_STYLE ('',( #61 ) ) ;
#15 = DIRECTION ( 'NONE',  ( -1.000000000000000000, -0.0000000000000000000, -0.0000000000000000000 ) ) ;
#16 = PRESENTATION_STYLE_ASSIGNMENT (( #34 ) ) ;
#17 =( LENGTH_UNIT ( ) NAMED_UNIT ( * ) SI_UNIT ( .MILLI., .METRE. ) );
#18 = FILL_AREA_STYLE ('',( #179 ) ) ;
#19 = APPLICATION_PROTOCOL_DEFINITION ( 'draft international standard', 'automotive_design', 1998, #149 ) ;
#20 = PRESENTATION_STYLE_ASSIGNMENT (( #192 ) ) ;
#21 = AXIS2_PLACEMENT_3D ( 'NONE', #82, #64, #177 ) ;
#22 = CLOSED_SHELL ( 'NONE', ( #165, #39, #181, #103 ) ) ;
#23 =( NAMED_UNIT ( * ) SI_UNIT ( $, .STERADIAN. ) SOLID_ANGLE_UNIT ( ) );
#24 =( NAMED_UNIT ( * ) SI_UNIT ( $, .STERADIAN. ) SOLID_ANGLE_UNIT ( ) );
#25 = DIRECTION ( 'NONE',  ( 0.0000000000000000000, 0.0000000000000000000, -1.000000000000000000 ) ) ;
#26 = STYLED_ITEM ( 'NONE', ( #206 ), #171 ) ;
#27 = CARTESIAN_POINT ( 'NONE',  ( -964.0000000000000000, 0.0000000000000000000, 0.0000000000000000000 ) ) ;
#28 = DIRECTION ( 'NONE',  ( 0.0000000000000000000, 0.0000000000000000000, -1.000000000000000000 ) ) ;
#29 = CLOSED_SHELL ( 'NONE', ( #58, #119, #196 ) ) ;
#30 = DIRECTION ( 'NONE',  ( 1.000000000000000000, 0.0000000000000000000, 0.0000000000000000000 ) ) ;
#31 = COLOUR_RGB ( '',0.7921568627450980005, 0.8196078431372548767, 0.9333333333333333481 ) ;
#32 = DIRECTION ( 'NONE',  ( 0.0000000000000000000, 0.0000000000000000000, 1.000000000000000000 ) ) ;
#33 = CARTESIAN_POINT ( 'NONE',  ( -3.367778697655220026E-17, 0.5499999999999999334, 0.0000000000000000000 ) ) ;
#34 = SURFACE_STYLE_USAGE ( .BOTH. , #54 ) ;
#35 = ORIENTED_EDGE ( 'NONE', *, *, #176, .T. ) ;
#36 = SURFACE_STYLE_FILL_AREA ( #48 ) ;
#37 = PRESENTATION_STYLE_ASSIGNMENT (( #105 ) ) ;
#38 = DIRECTION ( 'NONE',  ( 1.000000000000000000, 0.0000000000000000000, 0.0000000000000000000 ) ) ;
#39 = ADVANCED_FACE ( 'NONE', ( #183 ), #108, .F. ) ;
#40 =( NAMED_UNIT ( * ) PLANE_ANGLE_UNIT ( ) SI_UNIT ( $, .RADIAN. ) );
#41 =( GEOMETRIC_REPRESENTATION_CONTEXT ( 3 ) GLOBAL_UNCERTAINTY_ASSIGNED_CONTEXT ( ( #154 ) ) GLOBAL_UNIT_ASSIGNED_CONTEXT ( ( #91, #73, #138 ) ) REPRESENTATION_CONTEXT ( 'NONE', 'WORKASPACE' ) );
#42 = DIRECTION ( 'NONE',  ( -1.000000000000000000, -0.0000000000000000000, -0.0000000000000000000 ) ) ;
#43 =( NAMED_UNIT ( * ) PLANE_ANGLE_UNIT ( ) SI_UNIT ( $, .RADIAN. ) );
#44 = SURFACE_STYLE_FILL_AREA ( #77 ) ;
#45 = FILL_AREA_STYLE_COLOUR ( '', #88 ) ;
#46 = CARTESIAN_POINT ( 'NONE',  ( 35.77218254069479286, 0.0000000000000000000, 0.5500000000000042633 ) ) ;
#47 = FACE_OUTER_BOUND ( 'NONE', #137, .T. ) ;
#48 = FILL_AREA_STYLE ('',( #212 ) ) ;
#49 =( GEOMETRIC_REPRESENTATION_CONTEXT ( 3 ) GLOBAL_UNCERTAINTY_ASSIGNED_CONTEXT ( ( #76 ) ) GLOBAL_UNIT_ASSIGNED_CONTEXT ( ( #81, #185, #74 ) ) REPRESENTATION_CONTEXT ( 'NONE', 'WORKASPACE' ) );
#50 = SHAPE_DEFINITION_REPRESENTATION ( #162, #136 ) ;
#51 = PLANE ( 'NONE',  #127 ) ;
#52 = DIRECTION ( 'NONE',  ( 0.0000000000000000000, 0.0000000000000000000, -1.000000000000000000 ) ) ;
#53 = FACE_OUTER_BOUND ( 'NONE', #188, .T. ) ;
#54 = SURFACE_SIDE_STYLE ('',( #36 ) ) ;
#55 = MANIFOLD_SOLID_BREP ( 'ºÐÇÒ2[1]', #22 ) ;
#56 = SURFACE_STYLE_FILL_AREA ( #166 ) ;
#57 = FACE_BOUND ( 'NONE', #106, .T. ) ;
#58 = ADVANCED_FACE ( 'NONE', ( #209 ), #128, .F. ) ;
#59 = DIRECTION ( 'NONE',  ( 0.0000000000000000000, 0.0000000000000000000, 1.000000000000000000 ) ) ;
#60 = FILL_AREA_STYLE_COLOUR ( '', #68 ) ;
#61 = FILL_AREA_STYLE_COLOUR ( '', #130 ) ;
#62 = UNCERTAINTY_MEASURE_WITH_UNIT (LENGTH_MEASURE( 1.000000000000000082E-05 ), #164, 'distance_accuracy_value', 'NONE');
#63 = PRODUCT_DEFINITION_CONTEXT ( 'detailed design', #5, 'design' ) ;
#64 = DIRECTION ( 'NONE',  ( -1.000000000000000000, -0.0000000000000000000, -0.0000000000000000000 ) ) ;
#65 = DIRECTION ( 'NONE',  ( 0.0000000000000000000, 0.0000000000000000000, -1.000000000000000000 ) ) ;
#66 = DIRECTION ( 'NONE',  ( 1.000000000000000000, 0.0000000000000000000, 0.0000000000000000000 ) ) ;
#67 = ORIENTED_EDGE ( 'NONE', *, *, #161, .T. ) ;
#68 = COLOUR_RGB ( '',0.7921568627450980005, 0.8196078431372548767, 0.9333333333333333481 ) ;
#69 = EDGE_LOOP ( 'NONE', ( #95 ) ) ;
#70 = CARTESIAN_POINT ( 'NONE',  ( 0.1099999999999980993, 0.0000000000000000000, -0.5500000000000020428 ) ) ;
#71 = SURFACE_SIDE_STYLE ('',( #56 ) ) ;
#72 = PRESENTATION_STYLE_ASSIGNMENT (( #123 ) ) ;
#73 =( NAMED_UNIT ( * ) PLANE_ANGLE_UNIT ( ) SI_UNIT ( $, .RADIAN. ) );
#74 =( NAMED_UNIT ( * ) SI_UNIT ( $, .STERADIAN. ) SOLID_ANGLE_UNIT ( ) );
#75 =( LENGTH_UNIT ( ) NAMED_UNIT ( * ) SI_UNIT ( .MILLI., .METRE. ) );
#76 = UNCERTAINTY_MEASURE_WITH_UNIT (LENGTH_MEASURE( 1.000000000000000082E-05 ), #81, 'distance_accuracy_value', 'NONE');
#77 = FILL_AREA_STYLE ('',( #45 ) ) ;
#78 = STYLED_ITEM ( 'NONE', ( #16 ), #119 ) ;
#79 = SURFACE_SIDE_STYLE ('',( #116 ) ) ;
#80 = PRESENTATION_LAYER_ASSIGNMENT (  '', '', ( #89 ) ) ;
#81 =( LENGTH_UNIT ( ) NAMED_UNIT ( * ) SI_UNIT ( .MILLI., .METRE. ) );
#82 = CARTESIAN_POINT ( 'NONE',  ( -3.367778697655220026E-17, 0.0000000000000000000, 0.0000000000000000000 ) ) ;
#83 =( NAMED_UNIT ( * ) SI_UNIT ( $, .STERADIAN. ) SOLID_ANGLE_UNIT ( ) );
#84 = CARTESIAN_POINT ( 'NONE',  ( 0.0000000000000000000, 0.0000000000000000000, 0.0000000000000000000 ) ) ;
#85 = FACE_OUTER_BOUND ( 'NONE', #69, .T. ) ;
#86 = AXIS2_PLACEMENT_3D ( 'NONE', #33, #113, #141 ) ;
#87 = VERTEX_POINT ( 'NONE', #198 ) ;
#88 = COLOUR_RGB ( '',0.7921568627450980005, 0.8196078431372548767, 0.9333333333333333481 ) ;
#89 = STYLED_ITEM ( 'NONE', ( #37 ), #136 ) ;
#90 = CARTESIAN_POINT ( 'NONE',  ( 22.00000000000000000, 0.0000000000000000000, 0.0000000000000000000 ) ) ;
#91 =( LENGTH_UNIT ( ) NAMED_UNIT ( * ) SI_UNIT ( .MILLI., .METRE. ) );
#92 = VERTEX_POINT ( 'NONE', #70 ) ;
#93 = CARTESIAN_POINT ( 'NONE',  ( 35.77218254069479286, 0.0000000000000000000, 0.0000000000000000000 ) ) ;
#94 = ORIENTED_EDGE ( 'NONE', *, *, #169, .F. ) ;
#95 = ORIENTED_EDGE ( 'NONE', *, *, #156, .T. ) ;
#96 = ORIENTED_EDGE ( 'NONE', *, *, #152, .F. ) ;
#97 = FACE_OUTER_BOUND ( 'NONE', #163, .T. ) ;
#98 =( NAMED_UNIT ( * ) PLANE_ANGLE_UNIT ( ) SI_UNIT ( $, .RADIAN. ) );
#99 = AXIS2_PLACEMENT_3D ( 'NONE', #90, #144, #65 ) ;
#100 = CARTESIAN_POINT ( 'NONE',  ( 0.0000000000000000000, 0.0000000000000000000, 0.0000000000000000000 ) ) ;
#101 = VERTEX_POINT ( 'NONE', #46 ) ;
#102 = AXIS2_PLACEMENT_3D ( 'NONE', #93, #203, #124 ) ;
#103 = ADVANCED_FACE ( 'NONE', ( #85 ), #51, .T. ) ;
#104 =( LENGTH_UNIT ( ) NAMED_UNIT ( * ) SI_UNIT ( .MILLI., .METRE. ) );
#105 = SURFACE_STYLE_USAGE ( .BOTH. , #71 ) ;
#106 = EDGE_LOOP ( 'NONE', ( #168 ) ) ;
#107 = SURFACE_SIDE_STYLE ('',( #140 ) ) ;
#108 = PLANE ( 'NONE',  #86 ) ;
#109 = PRODUCT ( '03-1617', '03-1617', '', ( #4 ) ) ;
#110 = PRESENTATION_LAYER_ASSIGNMENT (  '', '', ( #78 ) ) ;
#111 = UNCERTAINTY_MEASURE_WITH_UNIT (LENGTH_MEASURE( 1.000000000000000082E-05 ), #104, 'distance_accuracy_value', 'NONE');
#112 = DIRECTION ( 'NONE',  ( 1.000000000000000000, 0.0000000000000000000, 0.0000000000000000000 ) ) ;
#113 = DIRECTION ( 'NONE',  ( 1.000000000000000000, 0.0000000000000000000, 0.0000000000000000000 ) ) ;
#114 = CYLINDRICAL_SURFACE ( 'NONE', #173, 0.5500000000000020428 ) ;
#115 = AXIS2_PLACEMENT_3D ( 'NONE', #84, #158, #186 ) ;
#116 = SURFACE_STYLE_FILL_AREA ( #14 ) ;
#117 = AXIS2_PLACEMENT_3D ( 'NONE', #120, #12, #2 ) ;
#118 = CARTESIAN_POINT ( 'NONE',  ( 22.00000000000000000, 0.0000000000000000000, 0.0000000000000000000 ) ) ;
#119 = ADVANCED_FACE ( 'NONE', ( #148, #47 ), #195, .T. ) ;
#120 = CARTESIAN_POINT ( 'NONE',  ( 0.0000000000000000000, 0.0000000000000000000, 0.0000000000000000000 ) ) ;
#121 =( GEOMETRIC_REPRESENTATION_CONTEXT ( 3 ) GLOBAL_UNCERTAINTY_ASSIGNED_CONTEXT ( ( #62 ) ) GLOBAL_UNIT_ASSIGNED_CONTEXT ( ( #164, #40, #23 ) ) REPRESENTATION_CONTEXT ( 'NONE', 'WORKASPACE' ) );
#122 = COLOUR_RGB ( '',1.000000000000000000, 1.000000000000000000, 0.0000000000000000000 ) ;
#123 = SURFACE_STYLE_USAGE ( .BOTH. , #79 ) ;
#124 = DIRECTION ( 'NONE',  ( 0.0000000000000000000, 0.0000000000000000000, 1.000000000000000000 ) ) ;
#125 = MECHANICAL_DESIGN_GEOMETRIC_PRESENTATION_REPRESENTATION (  '', ( #78 ), #3 ) ;
#126 = ORIENTED_EDGE ( 'NONE', *, *, #152, .T. ) ;
#127 = AXIS2_PLACEMENT_3D ( 'NONE', #208, #112, #146 ) ;
#128 = PLANE ( 'NONE',  #99 ) ;
#129 = UNCERTAINTY_MEASURE_WITH_UNIT (LENGTH_MEASURE( 1.000000000000000082E-05 ), #17, 'distance_accuracy_value', 'NONE');
#130 = COLOUR_RGB ( '',1.000000000000000000, 1.000000000000000000, 0.0000000000000000000 ) ;
#131 = AXIS2_PLACEMENT_3D ( 'NONE', #145, #30, #204 ) ;
#132 = PRODUCT_RELATED_PRODUCT_CATEGORY ( 'part', '', ( #109 ) ) ;
#133 = EDGE_LOOP ( 'NONE', ( #67 ) ) ;
#134 = PRESENTATION_LAYER_ASSIGNMENT (  '', '', ( #178 ) ) ;
#135 = CONICAL_SURFACE ( 'NONE', #205, 0.4400000000000063860, 0.7853981633974375098 ) ;
#136 = ADVANCED_BREP_SHAPE_REPRESENTATION ( '03-1617', ( #55, #171, #117 ), #121 ) ;
#137 = EDGE_LOOP ( 'NONE', ( #189 ) ) ;
#138 =( NAMED_UNIT ( * ) SI_UNIT ( $, .STERADIAN. ) SOLID_ANGLE_UNIT ( ) );
#139 = FACE_OUTER_BOUND ( 'NONE', #6, .T. ) ;
#140 = SURFACE_STYLE_FILL_AREA ( #18 ) ;
#141 = DIRECTION ( 'NONE',  ( 0.0000000000000000000, 0.0000000000000000000, -1.000000000000000000 ) ) ;
#142 = ORIENTED_EDGE ( 'NONE', *, *, #176, .F. ) ;
#143 = EDGE_LOOP ( 'NONE', ( #126 ) ) ;
#144 = DIRECTION ( 'NONE',  ( 1.000000000000000000, 0.0000000000000000000, 0.0000000000000000000 ) ) ;
#145 = CARTESIAN_POINT ( 'NONE',  ( 0.1099999999999980993, 0.0000000000000000000, 0.0000000000000000000 ) ) ;
#146 = DIRECTION ( 'NONE',  ( 0.0000000000000000000, 0.0000000000000000000, -1.000000000000000000 ) ) ;
#147 = PRODUCT_DEFINITION ( 'UNKNOWN', '', #160, #63 ) ;
#148 = FACE_OUTER_BOUND ( 'NONE', #159, .T. ) ;
#149 = APPLICATION_CONTEXT ( 'automotive_design' ) ;
#150 =( NAMED_UNIT ( * ) PLANE_ANGLE_UNIT ( ) SI_UNIT ( $, .RADIAN. ) );
#151 = SURFACE_STYLE_USAGE ( .BOTH. , #107 ) ;
#152 = EDGE_CURVE ( 'NONE', #92, #92, #170, .T. ) ;
#153 = FACE_OUTER_BOUND ( 'NONE', #143, .T. ) ;
#154 = UNCERTAINTY_MEASURE_WITH_UNIT (LENGTH_MEASURE( 1.000000000000000082E-05 ), #91, 'distance_accuracy_value', 'NONE');
#155 =( GEOMETRIC_REPRESENTATION_CONTEXT ( 3 ) GLOBAL_UNCERTAINTY_ASSIGNED_CONTEXT ( ( #111 ) ) GLOBAL_UNIT_ASSIGNED_CONTEXT ( ( #104, #150, #207 ) ) REPRESENTATION_CONTEXT ( 'NONE', 'WORKASPACE' ) );
#156 = EDGE_CURVE ( 'NONE', #7, #7, #174, .T. ) ;
#157 = CIRCLE ( 'NONE', #197, 0.5500000000000020428 ) ;
#158 = DIRECTION ( 'NONE',  ( -1.000000000000000000, -0.0000000000000000000, -0.0000000000000000000 ) ) ;
#159 = EDGE_LOOP ( 'NONE', ( #35 ) ) ;
#160 = PRODUCT_DEFINITION_FORMATION_WITH_SPECIFIED_SOURCE ( 'ANY', '', #109, .NOT_KNOWN. ) ;
#161 = EDGE_CURVE ( 'NONE', #200, #200, #180, .T. ) ;
#162 = PRODUCT_DEFINITION_SHAPE ( 'NONE', 'NONE',  #147 ) ;
#163 = EDGE_LOOP ( 'NONE', ( #94 ) ) ;
#164 =( LENGTH_UNIT ( ) NAMED_UNIT ( * ) SI_UNIT ( .MILLI., .METRE. ) );
#165 = ADVANCED_FACE ( 'NONE', ( #153, #139 ), #114, .T. ) ;
#166 = FILL_AREA_STYLE ('',( #60 ) ) ;
#167 = CARTESIAN_POINT ( 'NONE',  ( 22.00000000000000000, 0.0000000000000000000, -0.5500000000000020428 ) ) ;
#168 = ORIENTED_EDGE ( 'NONE', *, *, #161, .F. ) ;
#169 = EDGE_CURVE ( 'NONE', #101, #101, #172, .T. ) ;
#170 = CIRCLE ( 'NONE', #131, 0.5500000000000020428 ) ;
#171 = MANIFOLD_SOLID_BREP ( 'ºÐÇÒ2[2]', #29 ) ;
#172 = CIRCLE ( 'NONE', #102, 0.5500000000000042633 ) ;
#173 = AXIS2_PLACEMENT_3D ( 'NONE', #100, #15, #32 ) ;
#174 = CIRCLE ( 'NONE', #9, 0.5500000000000020428 ) ;
#175 = SURFACE_SIDE_STYLE ('',( #44 ) ) ;
#176 = EDGE_CURVE ( 'NONE', #87, #87, #157, .T. ) ;
#177 = DIRECTION ( 'NONE',  ( 0.0000000000000000000, 0.0000000000000000000, -1.000000000000000000 ) ) ;
#178 = STYLED_ITEM ( 'NONE', ( #20 ), #55 ) ;
#179 = FILL_AREA_STYLE_COLOUR ( '', #31 ) ;
#180 = CIRCLE ( 'NONE', #21, 0.4400000000000063860 ) ;
#181 = ADVANCED_FACE ( 'NONE', ( #53, #57 ), #135, .T. ) ;
#182 = CARTESIAN_POINT ( 'NONE',  ( -3.367778697655220026E-17, 0.0000000000000000000, -0.4400000000000063860 ) ) ;
#183 = FACE_OUTER_BOUND ( 'NONE', #133, .T. ) ;
#184 = ORIENTED_EDGE ( 'NONE', *, *, #156, .F. ) ;
#185 =( NAMED_UNIT ( * ) PLANE_ANGLE_UNIT ( ) SI_UNIT ( $, .RADIAN. ) );
#186 = DIRECTION ( 'NONE',  ( 0.0000000000000000000, 0.0000000000000000000, 1.000000000000000000 ) ) ;
#187 = MECHANICAL_DESIGN_GEOMETRIC_PRESENTATION_REPRESENTATION (  '', ( #178 ), #49 ) ;
#188 = EDGE_LOOP ( 'NONE', ( #96 ) ) ;
#189 = ORIENTED_EDGE ( 'NONE', *, *, #169, .T. ) ;
#190 = CARTESIAN_POINT ( 'NONE',  ( 22.00000000000000000, 0.0000000000000000000, 0.0000000000000000000 ) ) ;
#191 = UNCERTAINTY_MEASURE_WITH_UNIT (LENGTH_MEASURE( 1.000000000000000082E-05 ), #75, 'distance_accuracy_value', 'NONE');
#192 = SURFACE_STYLE_USAGE ( .BOTH. , #175 ) ;
#193 = MECHANICAL_DESIGN_GEOMETRIC_PRESENTATION_REPRESENTATION (  '', ( #26 ), #194 ) ;
#194 =( GEOMETRIC_REPRESENTATION_CONTEXT ( 3 ) GLOBAL_UNCERTAINTY_ASSIGNED_CONTEXT ( ( #191 ) ) GLOBAL_UNIT_ASSIGNED_CONTEXT ( ( #75, #43, #24 ) ) REPRESENTATION_CONTEXT ( 'NONE', 'WORKASPACE' ) );
#195 = CYLINDRICAL_SURFACE ( 'NONE', #115, 0.5500000000000020428 ) ;
#196 = ADVANCED_FACE ( 'NONE', ( #97 ), #1, .T. ) ;
#197 = AXIS2_PLACEMENT_3D ( 'NONE', #118, #38, #25 ) ;
#198 = CARTESIAN_POINT ( 'NONE',  ( 22.00000000000000000, 0.0000000000000000000, -0.5500000000000020428 ) ) ;
#199 = DIRECTION ( 'NONE',  ( 1.000000000000000000, 0.0000000000000000000, 0.0000000000000000000 ) ) ;
#200 = VERTEX_POINT ( 'NONE', #182 ) ;
#201 = MECHANICAL_DESIGN_GEOMETRIC_PRESENTATION_REPRESENTATION (  '', ( #89 ), #155 ) ;
#202 = MECHANICAL_DESIGN_GEOMETRIC_PRESENTATION_REPRESENTATION (  '', ( #210 ), #41 ) ;
#203 = DIRECTION ( 'NONE',  ( -1.000000000000000000, -0.0000000000000000000, -0.0000000000000000000 ) ) ;
#204 = DIRECTION ( 'NONE',  ( 0.0000000000000000000, 0.0000000000000000000, -1.000000000000000000 ) ) ;
#205 = AXIS2_PLACEMENT_3D ( 'NONE', #8, #199, #28 ) ;
#206 = PRESENTATION_STYLE_ASSIGNMENT (( #151 ) ) ;
#207 =( NAMED_UNIT ( * ) SI_UNIT ( $, .STERADIAN. ) SOLID_ANGLE_UNIT ( ) );
#208 = CARTESIAN_POINT ( 'NONE',  ( 22.00000000000000000, 0.0000000000000000000, 0.0000000000000000000 ) ) ;
#209 = FACE_OUTER_BOUND ( 'NONE', #13, .T. ) ;
#210 = STYLED_ITEM ( 'NONE', ( #72 ), #196 ) ;
#211 = PRESENTATION_LAYER_ASSIGNMENT (  '', '', ( #210 ) ) ;
#212 = FILL_AREA_STYLE_COLOUR ( '', #122 ) ;
#213 = PRESENTATION_LAYER_ASSIGNMENT (  '', '', ( #26 ) ) ;
ENDSEC;
END-ISO-10303-21;
