ISO-10303-21;
HEADER;
FILE_DESCRIPTION (( 'STEP AP214' ),
    '1' );
FILE_NAME ('03-1618.STEP',
    '2021-10-01T05:00:47',
    ( 'USER' ),
    ( '' ),
    'SwSTEP 2.0',
    'SolidWorks 2018',
    '' );
FILE_SCHEMA (( 'AUTOMOTIVE_DESIGN' ));
ENDSEC;

DATA;
#1 = EDGE_LOOP ( 'NONE', ( #40 ) ) ;
#2 = SURFACE_SIDE_STYLE ('',( #52 ) ) ;
#3 = FACE_OUTER_BOUND ( 'NONE', #18, .T. ) ;
#4 =( NAMED_UNIT ( * ) PLANE_ANGLE_UNIT ( ) SI_UNIT ( $, .RADIAN. ) );
#5 = AXIS2_PLACEMENT_3D ( 'NONE', #134, #196, #46 ) ;
#6 = PLANE ( 'NONE',  #186 ) ;
#7 =( NAMED_UNIT ( * ) PLANE_ANGLE_UNIT ( ) SI_UNIT ( $, .RADIAN. ) );
#8 = ORIENTED_EDGE ( 'NONE', *, *, #202, .F. ) ;
#9 = DIRECTION ( 'NONE',  ( -1.000000000000000000, -0.0000000000000000000, -0.0000000000000000000 ) ) ;
#10 = CARTESIAN_POINT ( 'NONE',  ( 22.00000000000000000, 0.0000000000000000000, 0.0000000000000000000 ) ) ;
#11 = VERTEX_POINT ( 'NONE', #51 ) ;
#12 = SURFACE_STYLE_USAGE ( .BOTH. , #123 ) ;
#13 = MECHANICAL_DESIGN_GEOMETRIC_PRESENTATION_REPRESENTATION (  '', ( #138 ), #132 ) ;
#14 = EDGE_LOOP ( 'NONE', ( #199 ) ) ;
#15 = ORIENTED_EDGE ( 'NONE', *, *, #209, .F. ) ;
#16 =( LENGTH_UNIT ( ) NAMED_UNIT ( * ) SI_UNIT ( .MILLI., .METRE. ) );
#17 = DIRECTION ( 'NONE',  ( 1.000000000000000000, 0.0000000000000000000, 0.0000000000000000000 ) ) ;
#18 = EDGE_LOOP ( 'NONE', ( #127 ) ) ;
#19 =( LENGTH_UNIT ( ) NAMED_UNIT ( * ) SI_UNIT ( .MILLI., .METRE. ) );
#20 =( LENGTH_UNIT ( ) NAMED_UNIT ( * ) SI_UNIT ( .MILLI., .METRE. ) );
#21 = UNCERTAINTY_MEASURE_WITH_UNIT (LENGTH_MEASURE( 1.000000000000000082E-05 ), #24, 'distance_accuracy_value', 'NONE');
#22 =( LENGTH_UNIT ( ) NAMED_UNIT ( * ) SI_UNIT ( .MILLI., .METRE. ) );
#23 = MECHANICAL_DESIGN_GEOMETRIC_PRESENTATION_REPRESENTATION (  '', ( #168 ), #70 ) ;
#24 =( LENGTH_UNIT ( ) NAMED_UNIT ( * ) SI_UNIT ( .MILLI., .METRE. ) );
#25 = FACE_OUTER_BOUND ( 'NONE', #89, .T. ) ;
#26 = FILL_AREA_STYLE_COLOUR ( '', #167 ) ;
#27 = COLOUR_RGB ( '',1.000000000000000000, 1.000000000000000000, 0.0000000000000000000 ) ;
#28 = COLOUR_RGB ( '',0.7921568627450980005, 0.8196078431372548767, 0.9333333333333333481 ) ;
#29 = SURFACE_STYLE_FILL_AREA ( #73 ) ;
#30 = ADVANCED_FACE ( 'NONE', ( #177 ), #54, .F. ) ;
#31 = ADVANCED_FACE ( 'NONE', ( #75, #80 ), #213, .T. ) ;
#32 =( LENGTH_UNIT ( ) NAMED_UNIT ( * ) SI_UNIT ( .MILLI., .METRE. ) );
#33 = CARTESIAN_POINT ( 'NONE',  ( -3.673940397442059498E-17, 0.0000000000000000000, 0.0000000000000000000 ) ) ;
#34 = DIRECTION ( 'NONE',  ( 0.0000000000000000000, 0.0000000000000000000, -1.000000000000000000 ) ) ;
#35 = SURFACE_SIDE_STYLE ('',( #164 ) ) ;
#36 = CARTESIAN_POINT ( 'NONE',  ( 22.00000000000000000, 0.0000000000000000000, 0.0000000000000000000 ) ) ;
#37 = DIRECTION ( 'NONE',  ( 0.0000000000000000000, 0.0000000000000000000, -1.000000000000000000 ) ) ;
#38 = UNCERTAINTY_MEASURE_WITH_UNIT (LENGTH_MEASURE( 1.000000000000000082E-05 ), #19, 'distance_accuracy_value', 'NONE');
#39 = COLOUR_RGB ( '',1.000000000000000000, 1.000000000000000000, 0.0000000000000000000 ) ;
#40 = ORIENTED_EDGE ( 'NONE', *, *, #209, .T. ) ;
#41 = ADVANCED_FACE ( 'NONE', ( #119 ), #65, .T. ) ;
#42 = DIRECTION ( 'NONE',  ( 1.000000000000000000, 0.0000000000000000000, 0.0000000000000000000 ) ) ;
#43 =( NAMED_UNIT ( * ) PLANE_ANGLE_UNIT ( ) SI_UNIT ( $, .RADIAN. ) );
#44 = SHAPE_DEFINITION_REPRESENTATION ( #71, #74 ) ;
#45 = CIRCLE ( 'NONE', #172, 0.6000000000000046407 ) ;
#46 = DIRECTION ( 'NONE',  ( 0.0000000000000000000, 0.0000000000000000000, 1.000000000000000000 ) ) ;
#47 = DIRECTION ( 'NONE',  ( 1.000000000000000000, 0.0000000000000000000, 0.0000000000000000000 ) ) ;
#48 = APPLICATION_PROTOCOL_DEFINITION ( 'draft international standard', 'automotive_design', 1998, #143 ) ;
#49 = EDGE_LOOP ( 'NONE', ( #8 ) ) ;
#50 = SURFACE_SIDE_STYLE ('',( #100 ) ) ;
#51 = CARTESIAN_POINT ( 'NONE',  ( 0.1200000000000032013, 0.0000000000000000000, -0.6000000000000021982 ) ) ;
#52 = SURFACE_STYLE_FILL_AREA ( #78 ) ;
#53 = DIRECTION ( 'NONE',  ( -1.000000000000000000, -0.0000000000000000000, -0.0000000000000000000 ) ) ;
#54 = PLANE ( 'NONE',  #112 ) ;
#55 = EDGE_LOOP ( 'NONE', ( #72 ) ) ;
#56 = PRESENTATION_STYLE_ASSIGNMENT (( #97 ) ) ;
#57 = UNCERTAINTY_MEASURE_WITH_UNIT (LENGTH_MEASURE( 1.000000000000000082E-05 ), #22, 'distance_accuracy_value', 'NONE');
#58 = STYLED_ITEM ( 'NONE', ( #56 ), #74 ) ;
#59 = SURFACE_STYLE_USAGE ( .BOTH. , #101 ) ;
#60 = CARTESIAN_POINT ( 'NONE',  ( 22.00000000000000000, 0.0000000000000000000, 0.0000000000000000000 ) ) ;
#61 = PRESENTATION_LAYER_ASSIGNMENT (  '', '', ( #168 ) ) ;
#62 = ORIENTED_EDGE ( 'NONE', *, *, #195, .F. ) ;
#63 =( NAMED_UNIT ( * ) SI_UNIT ( $, .STERADIAN. ) SOLID_ANGLE_UNIT ( ) );
#64 = FILL_AREA_STYLE_COLOUR ( '', #87 ) ;
#65 = CONICAL_SURFACE ( 'NONE', #105, 2414.213562373067361, 1.178097245096168422 ) ;
#66 = DIRECTION ( 'NONE',  ( 0.0000000000000000000, 0.0000000000000000000, -1.000000000000000000 ) ) ;
#67 = AXIS2_PLACEMENT_3D ( 'NONE', #10, #81, #206 ) ;
#68 = AXIS2_PLACEMENT_3D ( 'NONE', #165, #9, #146 ) ;
#69 = MANIFOLD_SOLID_BREP ( 'ºÐÇÒ2[1]', #158 ) ;
#70 =( GEOMETRIC_REPRESENTATION_CONTEXT ( 3 ) GLOBAL_UNCERTAINTY_ASSIGNED_CONTEXT ( ( #130 ) ) GLOBAL_UNIT_ASSIGNED_CONTEXT ( ( #16, #43, #160 ) ) REPRESENTATION_CONTEXT ( 'NONE', 'WORKASPACE' ) );
#71 = PRODUCT_DEFINITION_SHAPE ( 'NONE', 'NONE',  #104 ) ;
#72 = ORIENTED_EDGE ( 'NONE', *, *, #195, .T. ) ;
#73 = FILL_AREA_STYLE ('',( #93 ) ) ;
#74 = ADVANCED_BREP_SHAPE_REPRESENTATION ( '03-1618', ( #69, #194, #205 ), #151 ) ;
#75 = FACE_OUTER_BOUND ( 'NONE', #106, .T. ) ;
#76 = DIRECTION ( 'NONE',  ( 0.0000000000000000000, 0.0000000000000000000, 1.000000000000000000 ) ) ;
#77 =( NAMED_UNIT ( * ) PLANE_ANGLE_UNIT ( ) SI_UNIT ( $, .RADIAN. ) );
#78 = FILL_AREA_STYLE ('',( #178 ) ) ;
#79 = AXIS2_PLACEMENT_3D ( 'NONE', #60, #17, #179 ) ;
#80 = FACE_BOUND ( 'NONE', #173, .T. ) ;
#81 = DIRECTION ( 'NONE',  ( 1.000000000000000000, 0.0000000000000000000, 0.0000000000000000000 ) ) ;
#82 = CIRCLE ( 'NONE', #67, 0.6000000000000021982 ) ;
#83 = DIRECTION ( 'NONE',  ( -1.000000000000000000, -0.0000000000000000000, -0.0000000000000000000 ) ) ;
#84 = CARTESIAN_POINT ( 'NONE',  ( 0.1200000000000032013, 0.0000000000000000000, 0.0000000000000000000 ) ) ;
#85 = CARTESIAN_POINT ( 'NONE',  ( -962.0000000000000000, 0.0000000000000000000, 0.0000000000000000000 ) ) ;
#86 = MECHANICAL_DESIGN_GEOMETRIC_PRESENTATION_REPRESENTATION (  '', ( #58 ), #107 ) ;
#87 = COLOUR_RGB ( '',0.7921568627450980005, 0.8196078431372548767, 0.9333333333333333481 ) ;
#88 = AXIS2_PLACEMENT_3D ( 'NONE', #84, #129, #34 ) ;
#89 = EDGE_LOOP ( 'NONE', ( #190 ) ) ;
#90 =( GEOMETRIC_REPRESENTATION_CONTEXT ( 3 ) GLOBAL_UNCERTAINTY_ASSIGNED_CONTEXT ( ( #21 ) ) GLOBAL_UNIT_ASSIGNED_CONTEXT ( ( #24, #102, #183 ) ) REPRESENTATION_CONTEXT ( 'NONE', 'WORKASPACE' ) );
#91 = ADVANCED_FACE ( 'NONE', ( #189, #25 ), #182, .T. ) ;
#92 = DIRECTION ( 'NONE',  ( 1.000000000000000000, 0.0000000000000000000, 0.0000000000000000000 ) ) ;
#93 = FILL_AREA_STYLE_COLOUR ( '', #28 ) ;
#94 = FILL_AREA_STYLE_COLOUR ( '', #27 ) ;
#95 = CARTESIAN_POINT ( 'NONE',  ( 0.0000000000000000000, 0.0000000000000000000, 0.0000000000000000000 ) ) ;
#96 = EDGE_LOOP ( 'NONE', ( #121 ) ) ;
#97 = SURFACE_STYLE_USAGE ( .BOTH. , #50 ) ;
#98 = CARTESIAN_POINT ( 'NONE',  ( 0.0000000000000000000, 0.0000000000000000000, 0.0000000000000000000 ) ) ;
#99 = PLANE ( 'NONE',  #79 ) ;
#100 = SURFACE_STYLE_FILL_AREA ( #144 ) ;
#101 = SURFACE_SIDE_STYLE ('',( #149 ) ) ;
#102 =( NAMED_UNIT ( * ) PLANE_ANGLE_UNIT ( ) SI_UNIT ( $, .RADIAN. ) );
#103 = CARTESIAN_POINT ( 'NONE',  ( 22.00000000000000000, 0.0000000000000000000, -0.6000000000000021982 ) ) ;
#104 = PRODUCT_DEFINITION ( 'UNKNOWN', '', #163, #204 ) ;
#105 = AXIS2_PLACEMENT_3D ( 'NONE', #85, #108, #176 ) ;
#106 = EDGE_LOOP ( 'NONE', ( #62 ) ) ;
#107 =( GEOMETRIC_REPRESENTATION_CONTEXT ( 3 ) GLOBAL_UNCERTAINTY_ASSIGNED_CONTEXT ( ( #38 ) ) GLOBAL_UNIT_ASSIGNED_CONTEXT ( ( #19, #7, #111 ) ) REPRESENTATION_CONTEXT ( 'NONE', 'WORKASPACE' ) );
#108 = DIRECTION ( 'NONE',  ( -1.000000000000000000, -0.0000000000000000000, -0.0000000000000000000 ) ) ;
#109 = PRESENTATION_LAYER_ASSIGNMENT (  '', '', ( #116 ) ) ;
#110 = DIRECTION ( 'NONE',  ( 0.0000000000000000000, 0.0000000000000000000, -1.000000000000000000 ) ) ;
#111 =( NAMED_UNIT ( * ) SI_UNIT ( $, .STERADIAN. ) SOLID_ANGLE_UNIT ( ) );
#112 = AXIS2_PLACEMENT_3D ( 'NONE', #36, #42, #37 ) ;
#113 = CARTESIAN_POINT ( 'NONE',  ( -3.673940397442059498E-17, 0.0000000000000000000, -0.4799999999999977618 ) ) ;
#114 = UNCERTAINTY_MEASURE_WITH_UNIT (LENGTH_MEASURE( 1.000000000000000082E-05 ), #20, 'distance_accuracy_value', 'NONE');
#115 =( NAMED_UNIT ( * ) PLANE_ANGLE_UNIT ( ) SI_UNIT ( $, .RADIAN. ) );
#116 = STYLED_ITEM ( 'NONE', ( #207 ), #69 ) ;
#117 = DIRECTION ( 'NONE',  ( 0.0000000000000000000, 0.0000000000000000000, -1.000000000000000000 ) ) ;
#118 = EDGE_LOOP ( 'NONE', ( #152 ) ) ;
#119 = FACE_OUTER_BOUND ( 'NONE', #14, .T. ) ;
#120 =( GEOMETRIC_REPRESENTATION_CONTEXT ( 3 ) GLOBAL_UNCERTAINTY_ASSIGNED_CONTEXT ( ( #137 ) ) GLOBAL_UNIT_ASSIGNED_CONTEXT ( ( #32, #4, #185 ) ) REPRESENTATION_CONTEXT ( 'NONE', 'WORKASPACE' ) );
#121 = ORIENTED_EDGE ( 'NONE', *, *, #188, .T. ) ;
#122 = VERTEX_POINT ( 'NONE', #113 ) ;
#123 = SURFACE_SIDE_STYLE ('',( #29 ) ) ;
#124 = FILL_AREA_STYLE ('',( #26 ) ) ;
#125 = AXIS2_PLACEMENT_3D ( 'NONE', #197, #92, #117 ) ;
#126 = FACE_OUTER_BOUND ( 'NONE', #55, .T. ) ;
#127 = ORIENTED_EDGE ( 'NONE', *, *, #202, .T. ) ;
#128 = CARTESIAN_POINT ( 'NONE',  ( 22.00000000000000000, 0.0000000000000000000, -0.6000000000000021982 ) ) ;
#129 = DIRECTION ( 'NONE',  ( 1.000000000000000000, 0.0000000000000000000, 0.0000000000000000000 ) ) ;
#130 = UNCERTAINTY_MEASURE_WITH_UNIT (LENGTH_MEASURE( 1.000000000000000082E-05 ), #16, 'distance_accuracy_value', 'NONE');
#131 = VERTEX_POINT ( 'NONE', #184 ) ;
#132 =( GEOMETRIC_REPRESENTATION_CONTEXT ( 3 ) GLOBAL_UNCERTAINTY_ASSIGNED_CONTEXT ( ( #57 ) ) GLOBAL_UNIT_ASSIGNED_CONTEXT ( ( #22, #115, #166 ) ) REPRESENTATION_CONTEXT ( 'NONE', 'WORKASPACE' ) );
#133 = SURFACE_STYLE_USAGE ( .BOTH. , #35 ) ;
#134 = CARTESIAN_POINT ( 'NONE',  ( 0.0000000000000000000, 0.0000000000000000000, 0.0000000000000000000 ) ) ;
#135 = AXIS2_PLACEMENT_3D ( 'NONE', #95, #83, #76 ) ;
#136 = PRESENTATION_STYLE_ASSIGNMENT (( #59 ) ) ;
#137 = UNCERTAINTY_MEASURE_WITH_UNIT (LENGTH_MEASURE( 1.000000000000000082E-05 ), #32, 'distance_accuracy_value', 'NONE');
#138 = STYLED_ITEM ( 'NONE', ( #210 ), #194 ) ;
#139 = ADVANCED_FACE ( 'NONE', ( #147 ), #6, .F. ) ;
#140 = FACE_OUTER_BOUND ( 'NONE', #49, .T. ) ;
#141 = PRESENTATION_LAYER_ASSIGNMENT (  '', '', ( #138 ) ) ;
#142 = CARTESIAN_POINT ( 'NONE',  ( -3.673940397442059498E-17, 0.5999999999999999778, 0.0000000000000000000 ) ) ;
#143 = APPLICATION_CONTEXT ( 'automotive_design' ) ;
#144 = FILL_AREA_STYLE ('',( #64 ) ) ;
#145 = PRESENTATION_LAYER_ASSIGNMENT (  '', '', ( #153 ) ) ;
#146 = DIRECTION ( 'NONE',  ( 0.0000000000000000000, 0.0000000000000000000, -1.000000000000000000 ) ) ;
#147 = FACE_OUTER_BOUND ( 'NONE', #1, .T. ) ;
#148 = DIRECTION ( 'NONE',  ( 0.0000000000000000000, 0.0000000000000000000, 1.000000000000000000 ) ) ;
#149 = SURFACE_STYLE_FILL_AREA ( #208 ) ;
#150 = PRODUCT ( '03-1618', '03-1618', '', ( #203 ) ) ;
#151 =( GEOMETRIC_REPRESENTATION_CONTEXT ( 3 ) GLOBAL_UNCERTAINTY_ASSIGNED_CONTEXT ( ( #114 ) ) GLOBAL_UNIT_ASSIGNED_CONTEXT ( ( #20, #77, #63 ) ) REPRESENTATION_CONTEXT ( 'NONE', 'WORKASPACE' ) );
#152 = ORIENTED_EDGE ( 'NONE', *, *, #188, .F. ) ;
#153 = STYLED_ITEM ( 'NONE', ( #136 ), #91 ) ;
#154 = CIRCLE ( 'NONE', #88, 0.6000000000000021982 ) ;
#155 = CYLINDRICAL_SURFACE ( 'NONE', #135, 0.6000000000000021982 ) ;
#156 = PRODUCT_RELATED_PRODUCT_CATEGORY ( 'part', '', ( #150 ) ) ;
#157 = MECHANICAL_DESIGN_GEOMETRIC_PRESENTATION_REPRESENTATION (  '', ( #116 ), #120 ) ;
#158 = CLOSED_SHELL ( 'NONE', ( #174, #139, #31, #159 ) ) ;
#159 = ADVANCED_FACE ( 'NONE', ( #3 ), #99, .T. ) ;
#160 =( NAMED_UNIT ( * ) SI_UNIT ( $, .STERADIAN. ) SOLID_ANGLE_UNIT ( ) );
#161 = MECHANICAL_DESIGN_GEOMETRIC_PRESENTATION_REPRESENTATION (  '', ( #153 ), #90 ) ;
#162 = APPLICATION_CONTEXT ( 'automotive_design' ) ;
#163 = PRODUCT_DEFINITION_FORMATION_WITH_SPECIFIED_SOURCE ( 'ANY', '', #150, .NOT_KNOWN. ) ;
#164 = SURFACE_STYLE_FILL_AREA ( #124 ) ;
#165 = CARTESIAN_POINT ( 'NONE',  ( -3.673940397442059498E-17, 0.0000000000000000000, 0.0000000000000000000 ) ) ;
#166 =( NAMED_UNIT ( * ) SI_UNIT ( $, .STERADIAN. ) SOLID_ANGLE_UNIT ( ) );
#167 = COLOUR_RGB ( '',0.7921568627450980005, 0.8196078431372548767, 0.9333333333333333481 ) ;
#168 = STYLED_ITEM ( 'NONE', ( #198 ), #41 ) ;
#169 = CARTESIAN_POINT ( 'NONE',  ( 37.75147186257613896, 0.0000000000000000000, 0.0000000000000000000 ) ) ;
#170 = DIRECTION ( 'NONE',  ( 1.000000000000000000, 0.0000000000000000000, 0.0000000000000000000 ) ) ;
#171 = VERTEX_POINT ( 'NONE', #128 ) ;
#172 = AXIS2_PLACEMENT_3D ( 'NONE', #169, #53, #148 ) ;
#173 = EDGE_LOOP ( 'NONE', ( #15 ) ) ;
#174 = ADVANCED_FACE ( 'NONE', ( #126, #140 ), #155, .T. ) ;
#175 = CIRCLE ( 'NONE', #68, 0.4799999999999977618 ) ;
#176 = DIRECTION ( 'NONE',  ( 0.0000000000000000000, 0.0000000000000000000, 1.000000000000000000 ) ) ;
#177 = FACE_OUTER_BOUND ( 'NONE', #118, .T. ) ;
#178 = FILL_AREA_STYLE_COLOUR ( '', #39 ) ;
#179 = DIRECTION ( 'NONE',  ( 0.0000000000000000000, 0.0000000000000000000, -1.000000000000000000 ) ) ;
#180 = DIRECTION ( 'NONE',  ( 1.000000000000000000, 0.0000000000000000000, 0.0000000000000000000 ) ) ;
#181 = APPLICATION_PROTOCOL_DEFINITION ( 'draft international standard', 'automotive_design', 1998, #162 ) ;
#182 = CYLINDRICAL_SURFACE ( 'NONE', #5, 0.6000000000000021982 ) ;
#183 =( NAMED_UNIT ( * ) SI_UNIT ( $, .STERADIAN. ) SOLID_ANGLE_UNIT ( ) );
#184 = CARTESIAN_POINT ( 'NONE',  ( 37.75147186257613896, 0.0000000000000000000, 0.6000000000000046407 ) ) ;
#185 =( NAMED_UNIT ( * ) SI_UNIT ( $, .STERADIAN. ) SOLID_ANGLE_UNIT ( ) );
#186 = AXIS2_PLACEMENT_3D ( 'NONE', #142, #47, #110 ) ;
#187 = CLOSED_SHELL ( 'NONE', ( #30, #91, #41 ) ) ;
#188 = EDGE_CURVE ( 'NONE', #192, #192, #212, .T. ) ;
#189 = FACE_OUTER_BOUND ( 'NONE', #96, .T. ) ;
#190 = ORIENTED_EDGE ( 'NONE', *, *, #191, .T. ) ;
#191 = EDGE_CURVE ( 'NONE', #131, #131, #45, .T. ) ;
#192 = VERTEX_POINT ( 'NONE', #103 ) ;
#193 = SURFACE_STYLE_USAGE ( .BOTH. , #2 ) ;
#194 = MANIFOLD_SOLID_BREP ( 'ºÐÇÒ2[2]', #187 ) ;
#195 = EDGE_CURVE ( 'NONE', #11, #11, #154, .T. ) ;
#196 = DIRECTION ( 'NONE',  ( -1.000000000000000000, -0.0000000000000000000, -0.0000000000000000000 ) ) ;
#197 = CARTESIAN_POINT ( 'NONE',  ( 22.00000000000000000, 0.0000000000000000000, 0.0000000000000000000 ) ) ;
#198 = PRESENTATION_STYLE_ASSIGNMENT (( #193 ) ) ;
#199 = ORIENTED_EDGE ( 'NONE', *, *, #191, .F. ) ;
#200 = DIRECTION ( 'NONE',  ( 0.0000000000000000000, 0.0000000000000000000, 1.000000000000000000 ) ) ;
#201 = PRESENTATION_LAYER_ASSIGNMENT (  '', '', ( #58 ) ) ;
#202 = EDGE_CURVE ( 'NONE', #171, #171, #82, .T. ) ;
#203 = PRODUCT_CONTEXT ( 'NONE', #162, 'mechanical' ) ;
#204 = PRODUCT_DEFINITION_CONTEXT ( 'detailed design', #143, 'design' ) ;
#205 = AXIS2_PLACEMENT_3D ( 'NONE', #98, #200, #180 ) ;
#206 = DIRECTION ( 'NONE',  ( 0.0000000000000000000, 0.0000000000000000000, -1.000000000000000000 ) ) ;
#207 = PRESENTATION_STYLE_ASSIGNMENT (( #12 ) ) ;
#208 = FILL_AREA_STYLE ('',( #94 ) ) ;
#209 = EDGE_CURVE ( 'NONE', #122, #122, #175, .T. ) ;
#210 = PRESENTATION_STYLE_ASSIGNMENT (( #133 ) ) ;
#211 = AXIS2_PLACEMENT_3D ( 'NONE', #33, #170, #66 ) ;
#212 = CIRCLE ( 'NONE', #125, 0.6000000000000021982 ) ;
#213 = CONICAL_SURFACE ( 'NONE', #211, 0.4799999999999977618, 0.7853981633974532750 ) ;
ENDSEC;
END-ISO-10303-21;
