ISO-10303-21;
HEADER;
FILE_DESCRIPTION (( 'STEP AP214' ),
    '1' );
FILE_NAME ('03-1620.STEP',
    '2021-10-01T05:01:14',
    ( 'USER' ),
    ( '' ),
    'SwSTEP 2.0',
    'SolidWorks 2018',
    '' );
FILE_SCHEMA (( 'AUTOMOTIVE_DESIGN' ));
ENDSEC;

DATA;
#1 = AXIS2_PLACEMENT_3D ( 'NONE', #105, #41, #16 ) ;
#2 = DIRECTION ( 'NONE',  ( 1.000000000000000000, 0.0000000000000000000, 0.0000000000000000000 ) ) ;
#3 = SURFACE_SIDE_STYLE ('',( #5 ) ) ;
#4 =( LENGTH_UNIT ( ) NAMED_UNIT ( * ) SI_UNIT ( .MILLI., .METRE. ) );
#5 = SURFACE_STYLE_FILL_AREA ( #121 ) ;
#6 = FILL_AREA_STYLE_COLOUR ( '', #132 ) ;
#7 = CARTESIAN_POINT ( 'NONE',  ( -960.0000000000000000, 0.0000000000000000000, 0.0000000000000000000 ) ) ;
#8 = EDGE_LOOP ( 'NONE', ( #35 ) ) ;
#9 = FILL_AREA_STYLE ('',( #6 ) ) ;
#10 = DIRECTION ( 'NONE',  ( 0.0000000000000000000, 0.0000000000000000000, 1.000000000000000000 ) ) ;
#11 = APPLICATION_CONTEXT ( 'automotive_design' ) ;
#12 = PRESENTATION_STYLE_ASSIGNMENT (( #207 ) ) ;
#13 = PRODUCT_DEFINITION ( 'UNKNOWN', '', #22, #38 ) ;
#14 = FACE_OUTER_BOUND ( 'NONE', #20, .T. ) ;
#15 = VERTEX_POINT ( 'NONE', #122 ) ;
#16 = DIRECTION ( 'NONE',  ( 1.000000000000000000, 0.0000000000000000000, 0.0000000000000000000 ) ) ;
#17 =( NAMED_UNIT ( * ) PLANE_ANGLE_UNIT ( ) SI_UNIT ( $, .RADIAN. ) );
#18 = DIRECTION ( 'NONE',  ( -1.000000000000000000, -0.0000000000000000000, -0.0000000000000000000 ) ) ;
#19 =( NAMED_UNIT ( * ) SI_UNIT ( $, .STERADIAN. ) SOLID_ANGLE_UNIT ( ) );
#20 = EDGE_LOOP ( 'NONE', ( #73 ) ) ;
#21 =( NAMED_UNIT ( * ) PLANE_ANGLE_UNIT ( ) SI_UNIT ( $, .RADIAN. ) );
#22 = PRODUCT_DEFINITION_FORMATION_WITH_SPECIFIED_SOURCE ( 'ANY', '', #72, .NOT_KNOWN. ) ;
#23 = EDGE_LOOP ( 'NONE', ( #52 ) ) ;
#24 = CARTESIAN_POINT ( 'NONE',  ( -4.286263797015735979E-17, 0.0000000000000000000, 0.0000000000000000000 ) ) ;
#25 = EDGE_CURVE ( 'NONE', #144, #144, #134, .T. ) ;
#26 = ADVANCED_FACE ( 'NONE', ( #191 ), #155, .F. ) ;
#27 = ORIENTED_EDGE ( 'NONE', *, *, #160, .T. ) ;
#28 =( GEOMETRIC_REPRESENTATION_CONTEXT ( 3 ) GLOBAL_UNCERTAINTY_ASSIGNED_CONTEXT ( ( #63 ) ) GLOBAL_UNIT_ASSIGNED_CONTEXT ( ( #200, #17, #62 ) ) REPRESENTATION_CONTEXT ( 'NONE', 'WORKASPACE' ) );
#29 = MANIFOLD_SOLID_BREP ( 'ºÐÇÒ2[1]', #125 ) ;
#30 = ADVANCED_FACE ( 'NONE', ( #53 ), #60, .T. ) ;
#31 = PRODUCT_RELATED_PRODUCT_CATEGORY ( 'part', '', ( #72 ) ) ;
#32 =( NAMED_UNIT ( * ) SI_UNIT ( $, .STERADIAN. ) SOLID_ANGLE_UNIT ( ) );
#33 = CLOSED_SHELL ( 'NONE', ( #109, #106, #30 ) ) ;
#34 =( NAMED_UNIT ( * ) PLANE_ANGLE_UNIT ( ) SI_UNIT ( $, .RADIAN. ) );
#35 = ORIENTED_EDGE ( 'NONE', *, *, #25, .F. ) ;
#36 =( LENGTH_UNIT ( ) NAMED_UNIT ( * ) SI_UNIT ( .MILLI., .METRE. ) );
#37 = FACE_OUTER_BOUND ( 'NONE', #91, .T. ) ;
#38 = PRODUCT_DEFINITION_CONTEXT ( 'detailed design', #11, 'design' ) ;
#39 = CARTESIAN_POINT ( 'NONE',  ( 0.0000000000000000000, 0.0000000000000000000, 0.0000000000000000000 ) ) ;
#40 = CONICAL_SURFACE ( 'NONE', #174, 0.5599999999999945022, 0.7853981633974495002 ) ;
#41 = DIRECTION ( 'NONE',  ( 0.0000000000000000000, 0.0000000000000000000, 1.000000000000000000 ) ) ;
#42 = ADVANCED_FACE ( 'NONE', ( #181, #148 ), #40, .T. ) ;
#43 = PRESENTATION_STYLE_ASSIGNMENT (( #164 ) ) ;
#44 = SURFACE_STYLE_FILL_AREA ( #149 ) ;
#45 = PRESENTATION_STYLE_ASSIGNMENT (( #156 ) ) ;
#46 = UNCERTAINTY_MEASURE_WITH_UNIT (LENGTH_MEASURE( 1.000000000000000082E-05 ), #153, 'distance_accuracy_value', 'NONE');
#47 = CYLINDRICAL_SURFACE ( 'NONE', #104, 0.7000000000000025091 ) ;
#48 = STYLED_ITEM ( 'NONE', ( #43 ), #29 ) ;
#49 = PRESENTATION_STYLE_ASSIGNMENT (( #196 ) ) ;
#50 = CARTESIAN_POINT ( 'NONE',  ( 22.00000000000000355, 0.0000000000000000000, 0.0000000000000000000 ) ) ;
#51 = PRESENTATION_LAYER_ASSIGNMENT (  '', '', ( #131 ) ) ;
#52 = ORIENTED_EDGE ( 'NONE', *, *, #150, .F. ) ;
#53 = FACE_OUTER_BOUND ( 'NONE', #120, .T. ) ;
#54 = FACE_OUTER_BOUND ( 'NONE', #65, .T. ) ;
#55 = DIRECTION ( 'NONE',  ( 1.000000000000000000, 0.0000000000000000000, 0.0000000000000000000 ) ) ;
#56 = PLANE ( 'NONE',  #107 ) ;
#57 = COLOUR_RGB ( '',0.7921568627450980005, 0.8196078431372548767, 0.9333333333333333481 ) ;
#58 = AXIS2_PLACEMENT_3D ( 'NONE', #69, #2, #128 ) ;
#59 = DIRECTION ( 'NONE',  ( -1.000000000000000000, -0.0000000000000000000, -0.0000000000000000000 ) ) ;
#60 = CONICAL_SURFACE ( 'NONE', #90, 2414.213562373065542, 1.178097245096168200 ) ;
#61 = SURFACE_STYLE_FILL_AREA ( #159 ) ;
#62 =( NAMED_UNIT ( * ) SI_UNIT ( $, .STERADIAN. ) SOLID_ANGLE_UNIT ( ) );
#63 = UNCERTAINTY_MEASURE_WITH_UNIT (LENGTH_MEASURE( 1.000000000000000082E-05 ), #200, 'distance_accuracy_value', 'NONE');
#64 = AXIS2_PLACEMENT_3D ( 'NONE', #24, #18, #113 ) ;
#65 = EDGE_LOOP ( 'NONE', ( #99 ) ) ;
#66 = DIRECTION ( 'NONE',  ( -1.000000000000000000, -0.0000000000000000000, -0.0000000000000000000 ) ) ;
#67 = SURFACE_SIDE_STYLE ('',( #44 ) ) ;
#68 = CARTESIAN_POINT ( 'NONE',  ( 22.00000000000000355, 0.0000000000000000000, 0.0000000000000000000 ) ) ;
#69 = CARTESIAN_POINT ( 'NONE',  ( -4.286263797015735979E-17, 0.6999999999999999556, 0.0000000000000000000 ) ) ;
#70 = AXIS2_PLACEMENT_3D ( 'NONE', #187, #186, #182 ) ;
#71 = SURFACE_SIDE_STYLE ('',( #61 ) ) ;
#72 = PRODUCT ( '03-1620', '03-1620', '', ( #143 ) ) ;
#73 = ORIENTED_EDGE ( 'NONE', *, *, #199, .F. ) ;
#74 = UNCERTAINTY_MEASURE_WITH_UNIT (LENGTH_MEASURE( 1.000000000000000082E-05 ), #141, 'distance_accuracy_value', 'NONE');
#75 =( GEOMETRIC_REPRESENTATION_CONTEXT ( 3 ) GLOBAL_UNCERTAINTY_ASSIGNED_CONTEXT ( ( #74 ) ) GLOBAL_UNIT_ASSIGNED_CONTEXT ( ( #141, #101, #100 ) ) REPRESENTATION_CONTEXT ( 'NONE', 'WORKASPACE' ) );
#76 = UNCERTAINTY_MEASURE_WITH_UNIT (LENGTH_MEASURE( 1.000000000000000082E-05 ), #190, 'distance_accuracy_value', 'NONE');
#77 = DIRECTION ( 'NONE',  ( 0.0000000000000000000, 0.0000000000000000000, -1.000000000000000000 ) ) ;
#78 = ORIENTED_EDGE ( 'NONE', *, *, #150, .T. ) ;
#79 = EDGE_LOOP ( 'NONE', ( #142 ) ) ;
#80 = FACE_OUTER_BOUND ( 'NONE', #79, .T. ) ;
#81 = DIRECTION ( 'NONE',  ( -1.000000000000000000, -0.0000000000000000000, -0.0000000000000000000 ) ) ;
#82 = CARTESIAN_POINT ( 'NONE',  ( 39.71005050633883116, 0.0000000000000000000, 0.0000000000000000000 ) ) ;
#83 = DIRECTION ( 'NONE',  ( 0.0000000000000000000, 0.0000000000000000000, -1.000000000000000000 ) ) ;
#84 = DIRECTION ( 'NONE',  ( 1.000000000000000000, 0.0000000000000000000, 0.0000000000000000000 ) ) ;
#85 = SHAPE_DEFINITION_REPRESENTATION ( #129, #183 ) ;
#86 = SURFACE_SIDE_STYLE ('',( #88 ) ) ;
#87 = DIRECTION ( 'NONE',  ( 0.0000000000000000000, 0.0000000000000000000, -1.000000000000000000 ) ) ;
#88 = SURFACE_STYLE_FILL_AREA ( #9 ) ;
#89 = CARTESIAN_POINT ( 'NONE',  ( 0.1400000000000075906, 0.0000000000000000000, -0.7000000000000025091 ) ) ;
#90 = AXIS2_PLACEMENT_3D ( 'NONE', #7, #66, #154 ) ;
#91 = EDGE_LOOP ( 'NONE', ( #27 ) ) ;
#92 = AXIS2_PLACEMENT_3D ( 'NONE', #50, #55, #77 ) ;
#93 = ADVANCED_FACE ( 'NONE', ( #136 ), #147, .T. ) ;
#94 = CIRCLE ( 'NONE', #161, 0.7000000000000049516 ) ;
#95 = FILL_AREA_STYLE_COLOUR ( '', #57 ) ;
#96 = APPLICATION_CONTEXT ( 'automotive_design' ) ;
#97 = AXIS2_PLACEMENT_3D ( 'NONE', #119, #84, #87 ) ;
#98 = APPLICATION_PROTOCOL_DEFINITION ( 'draft international standard', 'automotive_design', 1998, #96 ) ;
#99 = ORIENTED_EDGE ( 'NONE', *, *, #199, .T. ) ;
#100 =( NAMED_UNIT ( * ) SI_UNIT ( $, .STERADIAN. ) SOLID_ANGLE_UNIT ( ) );
#101 =( NAMED_UNIT ( * ) PLANE_ANGLE_UNIT ( ) SI_UNIT ( $, .RADIAN. ) );
#102 = MECHANICAL_DESIGN_GEOMETRIC_PRESENTATION_REPRESENTATION (  '', ( #198 ), #28 ) ;
#103 = VERTEX_POINT ( 'NONE', #89 ) ;
#104 = AXIS2_PLACEMENT_3D ( 'NONE', #39, #59, #10 ) ;
#105 = CARTESIAN_POINT ( 'NONE',  ( 0.0000000000000000000, 0.0000000000000000000, 0.0000000000000000000 ) ) ;
#106 = ADVANCED_FACE ( 'NONE', ( #54, #80 ), #47, .T. ) ;
#107 = AXIS2_PLACEMENT_3D ( 'NONE', #68, #173, #192 ) ;
#108 = EDGE_LOOP ( 'NONE', ( #212 ) ) ;
#109 = ADVANCED_FACE ( 'NONE', ( #14 ), #56, .F. ) ;
#110 =( GEOMETRIC_REPRESENTATION_CONTEXT ( 3 ) GLOBAL_UNCERTAINTY_ASSIGNED_CONTEXT ( ( #76 ) ) GLOBAL_UNIT_ASSIGNED_CONTEXT ( ( #190, #157, #209 ) ) REPRESENTATION_CONTEXT ( 'NONE', 'WORKASPACE' ) );
#111 = UNCERTAINTY_MEASURE_WITH_UNIT (LENGTH_MEASURE( 1.000000000000000082E-05 ), #4, 'distance_accuracy_value', 'NONE');
#112 = EDGE_LOOP ( 'NONE', ( #78 ) ) ;
#113 = DIRECTION ( 'NONE',  ( 0.0000000000000000000, 0.0000000000000000000, -1.000000000000000000 ) ) ;
#114 = CARTESIAN_POINT ( 'NONE',  ( 39.71005050633883116, 0.0000000000000000000, 0.7000000000000049516 ) ) ;
#115 = CARTESIAN_POINT ( 'NONE',  ( 22.00000000000000355, 0.0000000000000000000, -0.7000000000000025091 ) ) ;
#116 = AXIS2_PLACEMENT_3D ( 'NONE', #201, #195, #194 ) ;
#117 = DIRECTION ( 'NONE',  ( 0.0000000000000000000, 0.0000000000000000000, 1.000000000000000000 ) ) ;
#118 = FILL_AREA_STYLE_COLOUR ( '', #211 ) ;
#119 = CARTESIAN_POINT ( 'NONE',  ( 22.00000000000000355, 0.0000000000000000000, 0.0000000000000000000 ) ) ;
#120 = EDGE_LOOP ( 'NONE', ( #130 ) ) ;
#121 = FILL_AREA_STYLE ('',( #206 ) ) ;
#122 = CARTESIAN_POINT ( 'NONE',  ( 22.00000000000000355, 0.0000000000000000000, -0.7000000000000025091 ) ) ;
#123 = EDGE_LOOP ( 'NONE', ( #138 ) ) ;
#124 = CIRCLE ( 'NONE', #97, 0.7000000000000025091 ) ;
#125 = CLOSED_SHELL ( 'NONE', ( #179, #26, #42, #93 ) ) ;
#126 =( GEOMETRIC_REPRESENTATION_CONTEXT ( 3 ) GLOBAL_UNCERTAINTY_ASSIGNED_CONTEXT ( ( #202 ) ) GLOBAL_UNIT_ASSIGNED_CONTEXT ( ( #36, #34, #32 ) ) REPRESENTATION_CONTEXT ( 'NONE', 'WORKASPACE' ) );
#127 = COLOUR_RGB ( '',0.7921568627450980005, 0.8196078431372548767, 0.9333333333333333481 ) ;
#128 = DIRECTION ( 'NONE',  ( 0.0000000000000000000, 0.0000000000000000000, -1.000000000000000000 ) ) ;
#129 = PRODUCT_DEFINITION_SHAPE ( 'NONE', 'NONE',  #13 ) ;
#130 = ORIENTED_EDGE ( 'NONE', *, *, #208, .F. ) ;
#131 = STYLED_ITEM ( 'NONE', ( #12 ), #106 ) ;
#132 = COLOUR_RGB ( '',1.000000000000000000, 1.000000000000000000, 0.0000000000000000000 ) ;
#133 = DIRECTION ( 'NONE',  ( 0.0000000000000000000, 0.0000000000000000000, 1.000000000000000000 ) ) ;
#134 = CIRCLE ( 'NONE', #64, 0.5599999999999945022 ) ;
#135 = CYLINDRICAL_SURFACE ( 'NONE', #165, 0.7000000000000025091 ) ;
#136 = FACE_OUTER_BOUND ( 'NONE', #112, .T. ) ;
#137 = CARTESIAN_POINT ( 'NONE',  ( -4.286263797015735979E-17, 0.0000000000000000000, -0.5599999999999945022 ) ) ;
#138 = ORIENTED_EDGE ( 'NONE', *, *, #25, .T. ) ;
#139 = STYLED_ITEM ( 'NONE', ( #177 ), #30 ) ;
#140 = MECHANICAL_DESIGN_GEOMETRIC_PRESENTATION_REPRESENTATION (  '', ( #131 ), #126 ) ;
#141 =( LENGTH_UNIT ( ) NAMED_UNIT ( * ) SI_UNIT ( .MILLI., .METRE. ) );
#142 = ORIENTED_EDGE ( 'NONE', *, *, #208, .T. ) ;
#143 = PRODUCT_CONTEXT ( 'NONE', #96, 'mechanical' ) ;
#144 = VERTEX_POINT ( 'NONE', #137 ) ;
#145 = MECHANICAL_DESIGN_GEOMETRIC_PRESENTATION_REPRESENTATION (  '', ( #48 ), #185 ) ;
#146 = PRESENTATION_LAYER_ASSIGNMENT (  '', '', ( #198 ) ) ;
#147 = PLANE ( 'NONE',  #92 ) ;
#148 = FACE_BOUND ( 'NONE', #8, .T. ) ;
#149 = FILL_AREA_STYLE ('',( #95 ) ) ;
#150 = EDGE_CURVE ( 'NONE', #15, #15, #175, .T. ) ;
#151 =( NAMED_UNIT ( * ) SI_UNIT ( $, .STERADIAN. ) SOLID_ANGLE_UNIT ( ) );
#152 =( NAMED_UNIT ( * ) PLANE_ANGLE_UNIT ( ) SI_UNIT ( $, .RADIAN. ) );
#153 =( LENGTH_UNIT ( ) NAMED_UNIT ( * ) SI_UNIT ( .MILLI., .METRE. ) );
#154 = DIRECTION ( 'NONE',  ( 0.0000000000000000000, 0.0000000000000000000, 1.000000000000000000 ) ) ;
#155 = PLANE ( 'NONE',  #58 ) ;
#156 = SURFACE_STYLE_USAGE ( .BOTH. , #163 ) ;
#157 =( NAMED_UNIT ( * ) PLANE_ANGLE_UNIT ( ) SI_UNIT ( $, .RADIAN. ) );
#158 = MECHANICAL_DESIGN_GEOMETRIC_PRESENTATION_REPRESENTATION (  '', ( #139 ), #110 ) ;
#159 = FILL_AREA_STYLE ('',( #118 ) ) ;
#160 = EDGE_CURVE ( 'NONE', #103, #103, #170, .T. ) ;
#161 = AXIS2_PLACEMENT_3D ( 'NONE', #82, #81, #117 ) ;
#162 = FACE_OUTER_BOUND ( 'NONE', #23, .T. ) ;
#163 = SURFACE_SIDE_STYLE ('',( #176 ) ) ;
#164 = SURFACE_STYLE_USAGE ( .BOTH. , #3 ) ;
#165 = AXIS2_PLACEMENT_3D ( 'NONE', #203, #188, #133 ) ;
#166 = PRESENTATION_LAYER_ASSIGNMENT (  '', '', ( #139 ) ) ;
#167 = CARTESIAN_POINT ( 'NONE',  ( -4.286263797015735979E-17, 0.0000000000000000000, 0.0000000000000000000 ) ) ;
#168 = FILL_AREA_STYLE ('',( #169 ) ) ;
#169 = FILL_AREA_STYLE_COLOUR ( '', #184 ) ;
#170 = CIRCLE ( 'NONE', #70, 0.7000000000000025091 ) ;
#171 = SURFACE_STYLE_USAGE ( .BOTH. , #86 ) ;
#172 = DIRECTION ( 'NONE',  ( 1.000000000000000000, 0.0000000000000000000, 0.0000000000000000000 ) ) ;
#173 = DIRECTION ( 'NONE',  ( 1.000000000000000000, 0.0000000000000000000, 0.0000000000000000000 ) ) ;
#174 = AXIS2_PLACEMENT_3D ( 'NONE', #167, #172, #83 ) ;
#175 = CIRCLE ( 'NONE', #116, 0.7000000000000025091 ) ;
#176 = SURFACE_STYLE_FILL_AREA ( #168 ) ;
#177 = PRESENTATION_STYLE_ASSIGNMENT (( #171 ) ) ;
#178 = STYLED_ITEM ( 'NONE', ( #45 ), #197 ) ;
#179 = ADVANCED_FACE ( 'NONE', ( #37, #162 ), #135, .T. ) ;
#180 = VERTEX_POINT ( 'NONE', #114 ) ;
#181 = FACE_OUTER_BOUND ( 'NONE', #108, .T. ) ;
#182 = DIRECTION ( 'NONE',  ( 0.0000000000000000000, 0.0000000000000000000, -1.000000000000000000 ) ) ;
#183 = ADVANCED_BREP_SHAPE_REPRESENTATION ( '03-1620', ( #29, #197, #1 ), #75 ) ;
#184 = COLOUR_RGB ( '',0.7921568627450980005, 0.8196078431372548767, 0.9333333333333333481 ) ;
#185 =( GEOMETRIC_REPRESENTATION_CONTEXT ( 3 ) GLOBAL_UNCERTAINTY_ASSIGNED_CONTEXT ( ( #111 ) ) GLOBAL_UNIT_ASSIGNED_CONTEXT ( ( #4, #21, #19 ) ) REPRESENTATION_CONTEXT ( 'NONE', 'WORKASPACE' ) );
#186 = DIRECTION ( 'NONE',  ( 1.000000000000000000, 0.0000000000000000000, 0.0000000000000000000 ) ) ;
#187 = CARTESIAN_POINT ( 'NONE',  ( 0.1400000000000075906, 0.0000000000000000000, 0.0000000000000000000 ) ) ;
#188 = DIRECTION ( 'NONE',  ( -1.000000000000000000, -0.0000000000000000000, -0.0000000000000000000 ) ) ;
#189 = VERTEX_POINT ( 'NONE', #115 ) ;
#190 =( LENGTH_UNIT ( ) NAMED_UNIT ( * ) SI_UNIT ( .MILLI., .METRE. ) );
#191 = FACE_OUTER_BOUND ( 'NONE', #123, .T. ) ;
#192 = DIRECTION ( 'NONE',  ( 0.0000000000000000000, 0.0000000000000000000, -1.000000000000000000 ) ) ;
#193 = PRESENTATION_LAYER_ASSIGNMENT (  '', '', ( #178 ) ) ;
#194 = DIRECTION ( 'NONE',  ( 0.0000000000000000000, 0.0000000000000000000, -1.000000000000000000 ) ) ;
#195 = DIRECTION ( 'NONE',  ( 1.000000000000000000, 0.0000000000000000000, 0.0000000000000000000 ) ) ;
#196 = SURFACE_STYLE_USAGE ( .BOTH. , #67 ) ;
#197 = MANIFOLD_SOLID_BREP ( 'ºÐÇÒ2[2]', #33 ) ;
#198 = STYLED_ITEM ( 'NONE', ( #49 ), #183 ) ;
#199 = EDGE_CURVE ( 'NONE', #189, #189, #124, .T. ) ;
#200 =( LENGTH_UNIT ( ) NAMED_UNIT ( * ) SI_UNIT ( .MILLI., .METRE. ) );
#201 = CARTESIAN_POINT ( 'NONE',  ( 22.00000000000000355, 0.0000000000000000000, 0.0000000000000000000 ) ) ;
#202 = UNCERTAINTY_MEASURE_WITH_UNIT (LENGTH_MEASURE( 1.000000000000000082E-05 ), #36, 'distance_accuracy_value', 'NONE');
#203 = CARTESIAN_POINT ( 'NONE',  ( 0.0000000000000000000, 0.0000000000000000000, 0.0000000000000000000 ) ) ;
#204 = MECHANICAL_DESIGN_GEOMETRIC_PRESENTATION_REPRESENTATION (  '', ( #178 ), #213 ) ;
#205 = PRESENTATION_LAYER_ASSIGNMENT (  '', '', ( #48 ) ) ;
#206 = FILL_AREA_STYLE_COLOUR ( '', #127 ) ;
#207 = SURFACE_STYLE_USAGE ( .BOTH. , #71 ) ;
#208 = EDGE_CURVE ( 'NONE', #180, #180, #94, .T. ) ;
#209 =( NAMED_UNIT ( * ) SI_UNIT ( $, .STERADIAN. ) SOLID_ANGLE_UNIT ( ) );
#210 = APPLICATION_PROTOCOL_DEFINITION ( 'draft international standard', 'automotive_design', 1998, #11 ) ;
#211 = COLOUR_RGB ( '',1.000000000000000000, 1.000000000000000000, 0.0000000000000000000 ) ;
#212 = ORIENTED_EDGE ( 'NONE', *, *, #160, .F. ) ;
#213 =( GEOMETRIC_REPRESENTATION_CONTEXT ( 3 ) GLOBAL_UNCERTAINTY_ASSIGNED_CONTEXT ( ( #46 ) ) GLOBAL_UNIT_ASSIGNED_CONTEXT ( ( #153, #152, #151 ) ) REPRESENTATION_CONTEXT ( 'NONE', 'WORKASPACE' ) );
ENDSEC;
END-ISO-10303-21;
