ISO-10303-21;
HEADER;
FILE_DESCRIPTION (( 'STEP AP214' ),
    '1' );
FILE_NAME ('03-1621.STEP',
    '2021-10-01T05:01:28',
    ( 'USER' ),
    ( '' ),
    'SwSTEP 2.0',
    'SolidWorks 2018',
    '' );
FILE_SCHEMA (( 'AUTOMOTIVE_DESIGN' ));
ENDSEC;

DATA;
#1 = FACE_OUTER_BOUND ( 'NONE', #94, .T. ) ;
#2 = PRODUCT ( '03-1621', '03-1621', '', ( #101 ) ) ;
#3 = EDGE_LOOP ( 'NONE', ( #147 ) ) ;
#4 = EDGE_CURVE ( 'NONE', #29, #29, #70, .T. ) ;
#5 = PLANE ( 'NONE',  #37 ) ;
#6 =( NAMED_UNIT ( * ) SI_UNIT ( $, .STERADIAN. ) SOLID_ANGLE_UNIT ( ) );
#7 = SURFACE_STYLE_USAGE ( .BOTH. , #24 ) ;
#8 = DIRECTION ( 'NONE',  ( 0.0000000000000000000, 0.0000000000000000000, 1.000000000000000000 ) ) ;
#9 = CYLINDRICAL_SURFACE ( 'NONE', #46, 0.7500000000000025535 ) ;
#10 = ORIENTED_EDGE ( 'NONE', *, *, #155, .T. ) ;
#11 = DIRECTION ( 'NONE',  ( 1.000000000000000000, 0.0000000000000000000, 0.0000000000000000000 ) ) ;
#12 = EDGE_LOOP ( 'NONE', ( #138 ) ) ;
#13 = AXIS2_PLACEMENT_3D ( 'NONE', #30, #28, #157 ) ;
#14 = AXIS2_PLACEMENT_3D ( 'NONE', #163, #38, #146 ) ;
#15 = CARTESIAN_POINT ( 'NONE',  ( 0.0000000000000000000, 0.0000000000000000000, 0.0000000000000000000 ) ) ;
#16 = CIRCLE ( 'NONE', #36, 0.7500000000000025535 ) ;
#17 = DIRECTION ( 'NONE',  ( 0.0000000000000000000, 0.0000000000000000000, 1.000000000000000000 ) ) ;
#18 =( NAMED_UNIT ( * ) PLANE_ANGLE_UNIT ( ) SI_UNIT ( $, .RADIAN. ) );
#19 = UNCERTAINTY_MEASURE_WITH_UNIT (LENGTH_MEASURE( 1.000000000000000082E-05 ), #193, 'distance_accuracy_value', 'NONE');
#20 = DIRECTION ( 'NONE',  ( 1.000000000000000000, 0.0000000000000000000, 0.0000000000000000000 ) ) ;
#21 = FILL_AREA_STYLE ('',( #87 ) ) ;
#22 = VERTEX_POINT ( 'NONE', #51 ) ;
#23 = EDGE_LOOP ( 'NONE', ( #166 ) ) ;
#24 = SURFACE_SIDE_STYLE ('',( #196 ) ) ;
#25 =( NAMED_UNIT ( * ) PLANE_ANGLE_UNIT ( ) SI_UNIT ( $, .RADIAN. ) );
#26 = MECHANICAL_DESIGN_GEOMETRIC_PRESENTATION_REPRESENTATION (  '', ( #98 ), #31 ) ;
#27 = STYLED_ITEM ( 'NONE', ( #96 ), #48 ) ;
#28 = DIRECTION ( 'NONE',  ( 1.000000000000000000, 0.0000000000000000000, 0.0000000000000000000 ) ) ;
#29 = VERTEX_POINT ( 'NONE', #192 ) ;
#30 = CARTESIAN_POINT ( 'NONE',  ( -4.592425496802575451E-17, 0.7500000000000001110, 0.0000000000000000000 ) ) ;
#31 =( GEOMETRIC_REPRESENTATION_CONTEXT ( 3 ) GLOBAL_UNCERTAINTY_ASSIGNED_CONTEXT ( ( #97 ) ) GLOBAL_UNIT_ASSIGNED_CONTEXT ( ( #209, #185, #61 ) ) REPRESENTATION_CONTEXT ( 'NONE', 'WORKASPACE' ) );
#32 = CARTESIAN_POINT ( 'NONE',  ( -4.592425496802575451E-17, 0.0000000000000000000, 0.0000000000000000000 ) ) ;
#33 = SHAPE_DEFINITION_REPRESENTATION ( #197, #48 ) ;
#34 = COLOUR_RGB ( '',1.000000000000000000, 1.000000000000000000, 0.0000000000000000000 ) ;
#35 =( NAMED_UNIT ( * ) SI_UNIT ( $, .STERADIAN. ) SOLID_ANGLE_UNIT ( ) );
#36 = AXIS2_PLACEMENT_3D ( 'NONE', #114, #11, #133 ) ;
#37 = AXIS2_PLACEMENT_3D ( 'NONE', #68, #20, #66 ) ;
#38 = DIRECTION ( 'NONE',  ( 1.000000000000000000, 0.0000000000000000000, 0.0000000000000000000 ) ) ;
#39 = PRESENTATION_LAYER_ASSIGNMENT (  '', '', ( #67 ) ) ;
#40 = EDGE_LOOP ( 'NONE', ( #88 ) ) ;
#41 = SURFACE_STYLE_USAGE ( .BOTH. , #165 ) ;
#42 = MECHANICAL_DESIGN_GEOMETRIC_PRESENTATION_REPRESENTATION (  '', ( #122 ), #213 ) ;
#43 = DIRECTION ( 'NONE',  ( 0.0000000000000000000, 0.0000000000000000000, -1.000000000000000000 ) ) ;
#44 = PRESENTATION_STYLE_ASSIGNMENT (( #89 ) ) ;
#45 = SURFACE_STYLE_FILL_AREA ( #21 ) ;
#46 = AXIS2_PLACEMENT_3D ( 'NONE', #132, #78, #8 ) ;
#47 =( NAMED_UNIT ( * ) PLANE_ANGLE_UNIT ( ) SI_UNIT ( $, .RADIAN. ) );
#48 = ADVANCED_BREP_SHAPE_REPRESENTATION ( '03-1621', ( #75, #81, #144 ), #140 ) ;
#49 = ADVANCED_FACE ( 'NONE', ( #120 ), #85, .T. ) ;
#50 = CIRCLE ( 'NONE', #160, 0.7500000000000025535 ) ;
#51 = CARTESIAN_POINT ( 'NONE',  ( -4.592425496802575451E-17, 0.0000000000000000000, -0.5999999999999963141 ) ) ;
#52 = DIRECTION ( 'NONE',  ( 0.0000000000000000000, 0.0000000000000000000, 1.000000000000000000 ) ) ;
#53 = ADVANCED_FACE ( 'NONE', ( #90 ), #112, .T. ) ;
#54 = DIRECTION ( 'NONE',  ( 0.0000000000000000000, 0.0000000000000000000, 1.000000000000000000 ) ) ;
#55 = PRESENTATION_STYLE_ASSIGNMENT (( #7 ) ) ;
#56 = CARTESIAN_POINT ( 'NONE',  ( -960.0000000000000000, 0.0000000000000000000, 0.0000000000000000000 ) ) ;
#57 = DIRECTION ( 'NONE',  ( -1.000000000000000000, -0.0000000000000000000, -0.0000000000000000000 ) ) ;
#58 = FACE_OUTER_BOUND ( 'NONE', #23, .T. ) ;
#59 = UNCERTAINTY_MEASURE_WITH_UNIT (LENGTH_MEASURE( 1.000000000000000082E-05 ), #128, 'distance_accuracy_value', 'NONE');
#60 = EDGE_LOOP ( 'NONE', ( #10 ) ) ;
#61 =( NAMED_UNIT ( * ) SI_UNIT ( $, .STERADIAN. ) SOLID_ANGLE_UNIT ( ) );
#62 =( GEOMETRIC_REPRESENTATION_CONTEXT ( 3 ) GLOBAL_UNCERTAINTY_ASSIGNED_CONTEXT ( ( #168 ) ) GLOBAL_UNIT_ASSIGNED_CONTEXT ( ( #194, #25, #206 ) ) REPRESENTATION_CONTEXT ( 'NONE', 'WORKASPACE' ) );
#63 = VERTEX_POINT ( 'NONE', #148 ) ;
#64 = ORIENTED_EDGE ( 'NONE', *, *, #4, .F. ) ;
#65 = SURFACE_STYLE_USAGE ( .BOTH. , #175 ) ;
#66 = DIRECTION ( 'NONE',  ( 0.0000000000000000000, 0.0000000000000000000, -1.000000000000000000 ) ) ;
#67 = STYLED_ITEM ( 'NONE', ( #44 ), #75 ) ;
#68 = CARTESIAN_POINT ( 'NONE',  ( 22.00000000000000355, 0.0000000000000000000, 0.0000000000000000000 ) ) ;
#69 = CYLINDRICAL_SURFACE ( 'NONE', #190, 0.7500000000000025535 ) ;
#70 = CIRCLE ( 'NONE', #162, 0.7500000000000048850 ) ;
#71 = DIRECTION ( 'NONE',  ( 0.0000000000000000000, 0.0000000000000000000, -1.000000000000000000 ) ) ;
#72 = AXIS2_PLACEMENT_3D ( 'NONE', #32, #156, #184 ) ;
#73 =( LENGTH_UNIT ( ) NAMED_UNIT ( * ) SI_UNIT ( .MILLI., .METRE. ) );
#74 = PRODUCT_DEFINITION_CONTEXT ( 'detailed design', #211, 'design' ) ;
#75 = MANIFOLD_SOLID_BREP ( 'ºÐÇÒ2[1]', #179 ) ;
#76 = STYLED_ITEM ( 'NONE', ( #55 ), #49 ) ;
#77 = EDGE_LOOP ( 'NONE', ( #159 ) ) ;
#78 = DIRECTION ( 'NONE',  ( -1.000000000000000000, -0.0000000000000000000, -0.0000000000000000000 ) ) ;
#79 = FILL_AREA_STYLE ('',( #186 ) ) ;
#80 = PRESENTATION_LAYER_ASSIGNMENT (  '', '', ( #27 ) ) ;
#81 = MANIFOLD_SOLID_BREP ( 'ºÐÇÒ2[2]', #170 ) ;
#82 = EDGE_LOOP ( 'NONE', ( #64 ) ) ;
#83 = APPLICATION_PROTOCOL_DEFINITION ( 'draft international standard', 'automotive_design', 1998, #211 ) ;
#84 = FILL_AREA_STYLE ('',( #189 ) ) ;
#85 = CONICAL_SURFACE ( 'NONE', #95, 2414.213562373091463, 1.178097245096171974 ) ;
#86 = EDGE_CURVE ( 'NONE', #115, #115, #16, .T. ) ;
#87 = FILL_AREA_STYLE_COLOUR ( '', #93 ) ;
#88 = ORIENTED_EDGE ( 'NONE', *, *, #173, .T. ) ;
#89 = SURFACE_STYLE_USAGE ( .BOTH. , #205 ) ;
#90 = FACE_OUTER_BOUND ( 'NONE', #12, .T. ) ;
#91 = DIRECTION ( 'NONE',  ( 0.0000000000000000000, 0.0000000000000000000, 1.000000000000000000 ) ) ;
#92 = MECHANICAL_DESIGN_GEOMETRIC_PRESENTATION_REPRESENTATION (  '', ( #27 ), #103 ) ;
#93 = COLOUR_RGB ( '',1.000000000000000000, 1.000000000000000000, 0.0000000000000000000 ) ;
#94 = EDGE_LOOP ( 'NONE', ( #174 ) ) ;
#95 = AXIS2_PLACEMENT_3D ( 'NONE', #56, #57, #91 ) ;
#96 = PRESENTATION_STYLE_ASSIGNMENT (( #65 ) ) ;
#97 = UNCERTAINTY_MEASURE_WITH_UNIT (LENGTH_MEASURE( 1.000000000000000082E-05 ), #209, 'distance_accuracy_value', 'NONE');
#98 = STYLED_ITEM ( 'NONE', ( #201 ), #81 ) ;
#99 = FACE_BOUND ( 'NONE', #100, .T. ) ;
#100 = EDGE_LOOP ( 'NONE', ( #116 ) ) ;
#101 = PRODUCT_CONTEXT ( 'NONE', #102, 'mechanical' ) ;
#102 = APPLICATION_CONTEXT ( 'automotive_design' ) ;
#103 =( GEOMETRIC_REPRESENTATION_CONTEXT ( 3 ) GLOBAL_UNCERTAINTY_ASSIGNED_CONTEXT ( ( #207 ) ) GLOBAL_UNIT_ASSIGNED_CONTEXT ( ( #121, #47, #35 ) ) REPRESENTATION_CONTEXT ( 'NONE', 'WORKASPACE' ) );
#104 = FACE_OUTER_BOUND ( 'NONE', #60, .T. ) ;
#105 = ADVANCED_FACE ( 'NONE', ( #104, #58 ), #9, .T. ) ;
#106 = CARTESIAN_POINT ( 'NONE',  ( -4.592425496802575451E-17, 0.0000000000000000000, 0.0000000000000000000 ) ) ;
#107 =( GEOMETRIC_REPRESENTATION_CONTEXT ( 3 ) GLOBAL_UNCERTAINTY_ASSIGNED_CONTEXT ( ( #199 ) ) GLOBAL_UNIT_ASSIGNED_CONTEXT ( ( #73, #181, #153 ) ) REPRESENTATION_CONTEXT ( 'NONE', 'WORKASPACE' ) );
#108 = DIRECTION ( 'NONE',  ( -1.000000000000000000, -0.0000000000000000000, -0.0000000000000000000 ) ) ;
#109 = CARTESIAN_POINT ( 'NONE',  ( 22.00000000000000355, 0.0000000000000000000, 0.0000000000000000000 ) ) ;
#110 = AXIS2_PLACEMENT_3D ( 'NONE', #106, #149, #71 ) ;
#111 = DIRECTION ( 'NONE',  ( 1.000000000000000000, 0.0000000000000000000, 0.0000000000000000000 ) ) ;
#112 = PLANE ( 'NONE',  #208 ) ;
#113 = MECHANICAL_DESIGN_GEOMETRIC_PRESENTATION_REPRESENTATION (  '', ( #67 ), #62 ) ;
#114 = CARTESIAN_POINT ( 'NONE',  ( 22.00000000000000355, 0.0000000000000000000, 0.0000000000000000000 ) ) ;
#115 = VERTEX_POINT ( 'NONE', #176 ) ;
#116 = ORIENTED_EDGE ( 'NONE', *, *, #173, .F. ) ;
#117 = SURFACE_STYLE_USAGE ( .BOTH. , #198 ) ;
#118 = DIRECTION ( 'NONE',  ( 1.000000000000000000, 0.0000000000000000000, 0.0000000000000000000 ) ) ;
#119 = CIRCLE ( 'NONE', #14, 0.7500000000000025535 ) ;
#120 = FACE_OUTER_BOUND ( 'NONE', #82, .T. ) ;
#121 =( LENGTH_UNIT ( ) NAMED_UNIT ( * ) SI_UNIT ( .MILLI., .METRE. ) );
#122 = STYLED_ITEM ( 'NONE', ( #154 ), #177 ) ;
#123 = APPLICATION_PROTOCOL_DEFINITION ( 'draft international standard', 'automotive_design', 1998, #102 ) ;
#124 = PRESENTATION_LAYER_ASSIGNMENT (  '', '', ( #76 ) ) ;
#125 =( NAMED_UNIT ( * ) PLANE_ANGLE_UNIT ( ) SI_UNIT ( $, .RADIAN. ) );
#126 = CARTESIAN_POINT ( 'NONE',  ( 22.00000000000000355, 0.0000000000000000000, -0.7500000000000025535 ) ) ;
#127 = EDGE_LOOP ( 'NONE', ( #188 ) ) ;
#128 =( LENGTH_UNIT ( ) NAMED_UNIT ( * ) SI_UNIT ( .MILLI., .METRE. ) );
#129 = ADVANCED_FACE ( 'NONE', ( #191 ), #172, .F. ) ;
#130 = FILL_AREA_STYLE_COLOUR ( '', #34 ) ;
#131 = FILL_AREA_STYLE_COLOUR ( '', #142 ) ;
#132 = CARTESIAN_POINT ( 'NONE',  ( 0.0000000000000000000, 0.0000000000000000000, 0.0000000000000000000 ) ) ;
#133 = DIRECTION ( 'NONE',  ( 0.0000000000000000000, 0.0000000000000000000, -1.000000000000000000 ) ) ;
#134 = PRESENTATION_LAYER_ASSIGNMENT (  '', '', ( #122 ) ) ;
#135 = SURFACE_STYLE_FILL_AREA ( #180 ) ;
#136 = MECHANICAL_DESIGN_GEOMETRIC_PRESENTATION_REPRESENTATION (  '', ( #76 ), #107 ) ;
#137 = CONICAL_SURFACE ( 'NONE', #72, 0.5999999999999963141, 0.7853981633974385090 ) ;
#138 = ORIENTED_EDGE ( 'NONE', *, *, #86, .T. ) ;
#139 = DIRECTION ( 'NONE',  ( 0.0000000000000000000, 0.0000000000000000000, -1.000000000000000000 ) ) ;
#140 =( GEOMETRIC_REPRESENTATION_CONTEXT ( 3 ) GLOBAL_UNCERTAINTY_ASSIGNED_CONTEXT ( ( #19 ) ) GLOBAL_UNIT_ASSIGNED_CONTEXT ( ( #193, #18, #143 ) ) REPRESENTATION_CONTEXT ( 'NONE', 'WORKASPACE' ) );
#141 = DIRECTION ( 'NONE',  ( 1.000000000000000000, 0.0000000000000000000, 0.0000000000000000000 ) ) ;
#142 = COLOUR_RGB ( '',0.7921568627450980005, 0.8196078431372548767, 0.9333333333333333481 ) ;
#143 =( NAMED_UNIT ( * ) SI_UNIT ( $, .STERADIAN. ) SOLID_ANGLE_UNIT ( ) );
#144 = AXIS2_PLACEMENT_3D ( 'NONE', #202, #17, #141 ) ;
#145 = FACE_OUTER_BOUND ( 'NONE', #3, .T. ) ;
#146 = DIRECTION ( 'NONE',  ( 0.0000000000000000000, 0.0000000000000000000, -1.000000000000000000 ) ) ;
#147 = ORIENTED_EDGE ( 'NONE', *, *, #4, .T. ) ;
#148 = CARTESIAN_POINT ( 'NONE',  ( 0.1500000000000090150, 0.0000000000000000000, -0.7500000000000025535 ) ) ;
#149 = DIRECTION ( 'NONE',  ( -1.000000000000000000, -0.0000000000000000000, -0.0000000000000000000 ) ) ;
#150 = SURFACE_STYLE_FILL_AREA ( #84 ) ;
#151 = PRESENTATION_LAYER_ASSIGNMENT (  '', '', ( #98 ) ) ;
#152 = DIRECTION ( 'NONE',  ( -1.000000000000000000, -0.0000000000000000000, -0.0000000000000000000 ) ) ;
#153 =( NAMED_UNIT ( * ) SI_UNIT ( $, .STERADIAN. ) SOLID_ANGLE_UNIT ( ) );
#154 = PRESENTATION_STYLE_ASSIGNMENT (( #41 ) ) ;
#155 = EDGE_CURVE ( 'NONE', #63, #63, #50, .T. ) ;
#156 = DIRECTION ( 'NONE',  ( 1.000000000000000000, 0.0000000000000000000, 0.0000000000000000000 ) ) ;
#157 = DIRECTION ( 'NONE',  ( 0.0000000000000000000, 0.0000000000000000000, -1.000000000000000000 ) ) ;
#158 = PRODUCT_DEFINITION ( 'UNKNOWN', '', #167, #74 ) ;
#159 = ORIENTED_EDGE ( 'NONE', *, *, #200, .F. ) ;
#160 = AXIS2_PLACEMENT_3D ( 'NONE', #210, #118, #139 ) ;
#161 = ADVANCED_FACE ( 'NONE', ( #187, #99 ), #137, .T. ) ;
#162 = AXIS2_PLACEMENT_3D ( 'NONE', #203, #152, #54 ) ;
#163 = CARTESIAN_POINT ( 'NONE',  ( 22.00000000000000355, 0.0000000000000000000, 0.0000000000000000000 ) ) ;
#164 = COLOUR_RGB ( '',0.7921568627450980005, 0.8196078431372548767, 0.9333333333333333481 ) ;
#165 = SURFACE_SIDE_STYLE ('',( #45 ) ) ;
#166 = ORIENTED_EDGE ( 'NONE', *, *, #86, .F. ) ;
#167 = PRODUCT_DEFINITION_FORMATION_WITH_SPECIFIED_SOURCE ( 'ANY', '', #2, .NOT_KNOWN. ) ;
#168 = UNCERTAINTY_MEASURE_WITH_UNIT (LENGTH_MEASURE( 1.000000000000000082E-05 ), #194, 'distance_accuracy_value', 'NONE');
#169 = FACE_OUTER_BOUND ( 'NONE', #77, .T. ) ;
#170 = CLOSED_SHELL ( 'NONE', ( #204, #177, #49 ) ) ;
#171 = FILL_AREA_STYLE ('',( #130 ) ) ;
#172 = PLANE ( 'NONE',  #13 ) ;
#173 = EDGE_CURVE ( 'NONE', #22, #22, #183, .T. ) ;
#174 = ORIENTED_EDGE ( 'NONE', *, *, #200, .T. ) ;
#175 = SURFACE_SIDE_STYLE ('',( #150 ) ) ;
#176 = CARTESIAN_POINT ( 'NONE',  ( 22.00000000000000355, 0.0000000000000000000, -0.7500000000000025535 ) ) ;
#177 = ADVANCED_FACE ( 'NONE', ( #1, #145 ), #69, .T. ) ;
#178 = PRODUCT_RELATED_PRODUCT_CATEGORY ( 'part', '', ( #2 ) ) ;
#179 = CLOSED_SHELL ( 'NONE', ( #105, #129, #161, #53 ) ) ;
#180 = FILL_AREA_STYLE ('',( #131 ) ) ;
#181 =( NAMED_UNIT ( * ) PLANE_ANGLE_UNIT ( ) SI_UNIT ( $, .RADIAN. ) );
#182 = COLOUR_RGB ( '',0.7921568627450980005, 0.8196078431372548767, 0.9333333333333333481 ) ;
#183 = CIRCLE ( 'NONE', #110, 0.5999999999999963141 ) ;
#184 = DIRECTION ( 'NONE',  ( 0.0000000000000000000, 0.0000000000000000000, -1.000000000000000000 ) ) ;
#185 =( NAMED_UNIT ( * ) PLANE_ANGLE_UNIT ( ) SI_UNIT ( $, .RADIAN. ) );
#186 = FILL_AREA_STYLE_COLOUR ( '', #182 ) ;
#187 = FACE_OUTER_BOUND ( 'NONE', #127, .T. ) ;
#188 = ORIENTED_EDGE ( 'NONE', *, *, #155, .F. ) ;
#189 = FILL_AREA_STYLE_COLOUR ( '', #164 ) ;
#190 = AXIS2_PLACEMENT_3D ( 'NONE', #15, #108, #52 ) ;
#191 = FACE_OUTER_BOUND ( 'NONE', #40, .T. ) ;
#192 = CARTESIAN_POINT ( 'NONE',  ( 39.68933982822017725, 0.0000000000000000000, 0.7500000000000048850 ) ) ;
#193 =( LENGTH_UNIT ( ) NAMED_UNIT ( * ) SI_UNIT ( .MILLI., .METRE. ) );
#194 =( LENGTH_UNIT ( ) NAMED_UNIT ( * ) SI_UNIT ( .MILLI., .METRE. ) );
#195 = VERTEX_POINT ( 'NONE', #126 ) ;
#196 = SURFACE_STYLE_FILL_AREA ( #171 ) ;
#197 = PRODUCT_DEFINITION_SHAPE ( 'NONE', 'NONE',  #158 ) ;
#198 = SURFACE_SIDE_STYLE ('',( #212 ) ) ;
#199 = UNCERTAINTY_MEASURE_WITH_UNIT (LENGTH_MEASURE( 1.000000000000000082E-05 ), #73, 'distance_accuracy_value', 'NONE');
#200 = EDGE_CURVE ( 'NONE', #195, #195, #119, .T. ) ;
#201 = PRESENTATION_STYLE_ASSIGNMENT (( #117 ) ) ;
#202 = CARTESIAN_POINT ( 'NONE',  ( 0.0000000000000000000, 0.0000000000000000000, 0.0000000000000000000 ) ) ;
#203 = CARTESIAN_POINT ( 'NONE',  ( 39.68933982822017725, 0.0000000000000000000, 0.0000000000000000000 ) ) ;
#204 = ADVANCED_FACE ( 'NONE', ( #169 ), #5, .F. ) ;
#205 = SURFACE_SIDE_STYLE ('',( #135 ) ) ;
#206 =( NAMED_UNIT ( * ) SI_UNIT ( $, .STERADIAN. ) SOLID_ANGLE_UNIT ( ) );
#207 = UNCERTAINTY_MEASURE_WITH_UNIT (LENGTH_MEASURE( 1.000000000000000082E-05 ), #121, 'distance_accuracy_value', 'NONE');
#208 = AXIS2_PLACEMENT_3D ( 'NONE', #109, #111, #43 ) ;
#209 =( LENGTH_UNIT ( ) NAMED_UNIT ( * ) SI_UNIT ( .MILLI., .METRE. ) );
#210 = CARTESIAN_POINT ( 'NONE',  ( 0.1500000000000090150, 0.0000000000000000000, 0.0000000000000000000 ) ) ;
#211 = APPLICATION_CONTEXT ( 'automotive_design' ) ;
#212 = SURFACE_STYLE_FILL_AREA ( #79 ) ;
#213 =( GEOMETRIC_REPRESENTATION_CONTEXT ( 3 ) GLOBAL_UNCERTAINTY_ASSIGNED_CONTEXT ( ( #59 ) ) GLOBAL_UNIT_ASSIGNED_CONTEXT ( ( #128, #125, #6 ) ) REPRESENTATION_CONTEXT ( 'NONE', 'WORKASPACE' ) );
ENDSEC;
END-ISO-10303-21;
