ISO-10303-21;
HEADER;
FILE_DESCRIPTION (( 'STEP AP214' ),
    '1' );
FILE_NAME ('03-1623.STEP',
    '2021-10-01T05:01:55',
    ( 'USER' ),
    ( '' ),
    'SwSTEP 2.0',
    'SolidWorks 2018',
    '' );
FILE_SCHEMA (( 'AUTOMOTIVE_DESIGN' ));
ENDSEC;

DATA;
#1 = MECHANICAL_DESIGN_GEOMETRIC_PRESENTATION_REPRESENTATION (  '', ( #133 ), #209 ) ;
#2 = DIRECTION ( 'NONE',  ( 0.0000000000000000000, 0.0000000000000000000, -1.000000000000000000 ) ) ;
#3 = ORIENTED_EDGE ( 'NONE', *, *, #138, .F. ) ;
#4 = CIRCLE ( 'NONE', #6, 0.6799999999999999378 ) ;
#5 = MANIFOLD_SOLID_BREP ( 'ºÐÇÒ2[2]', #50 ) ;
#6 = AXIS2_PLACEMENT_3D ( 'NONE', #132, #172, #213 ) ;
#7 = SHAPE_DEFINITION_REPRESENTATION ( #75, #198 ) ;
#8 =( GEOMETRIC_REPRESENTATION_CONTEXT ( 3 ) GLOBAL_UNCERTAINTY_ASSIGNED_CONTEXT ( ( #192 ) ) GLOBAL_UNIT_ASSIGNED_CONTEXT ( ( #137, #104, #131 ) ) REPRESENTATION_CONTEXT ( 'NONE', 'WORKASPACE' ) );
#9 = FACE_OUTER_BOUND ( 'NONE', #100, .T. ) ;
#10 = ORIENTED_EDGE ( 'NONE', *, *, #120, .T. ) ;
#11 = MECHANICAL_DESIGN_GEOMETRIC_PRESENTATION_REPRESENTATION (  '', ( #169 ), #24 ) ;
#12 = DIRECTION ( 'NONE',  ( 1.000000000000000000, 0.0000000000000000000, 0.0000000000000000000 ) ) ;
#13 = ADVANCED_FACE ( 'NONE', ( #135 ), #59, .T. ) ;
#14 = DIRECTION ( 'NONE',  ( -1.000000000000000000, -0.0000000000000000000, -0.0000000000000000000 ) ) ;
#15 =( LENGTH_UNIT ( ) NAMED_UNIT ( * ) SI_UNIT ( .MILLI., .METRE. ) );
#16 = APPLICATION_CONTEXT ( 'automotive_design' ) ;
#17 = SURFACE_SIDE_STYLE ('',( #97 ) ) ;
#18 = CARTESIAN_POINT ( 'NONE',  ( 22.99999999999999645, 0.0000000000000000000, -0.8500000000000025313 ) ) ;
#19 = EDGE_LOOP ( 'NONE', ( #3 ) ) ;
#20 = MECHANICAL_DESIGN_GEOMETRIC_PRESENTATION_REPRESENTATION (  '', ( #56 ), #205 ) ;
#21 = SURFACE_SIDE_STYLE ('',( #117 ) ) ;
#22 = PRODUCT_CONTEXT ( 'NONE', #78, 'mechanical' ) ;
#23 = MECHANICAL_DESIGN_GEOMETRIC_PRESENTATION_REPRESENTATION (  '', ( #43 ), #8 ) ;
#24 =( GEOMETRIC_REPRESENTATION_CONTEXT ( 3 ) GLOBAL_UNCERTAINTY_ASSIGNED_CONTEXT ( ( #54 ) ) GLOBAL_UNIT_ASSIGNED_CONTEXT ( ( #38, #36, #65 ) ) REPRESENTATION_CONTEXT ( 'NONE', 'WORKASPACE' ) );
#25 = AXIS2_PLACEMENT_3D ( 'NONE', #191, #163, #188 ) ;
#26 = FACE_BOUND ( 'NONE', #176, .T. ) ;
#27 = PRESENTATION_STYLE_ASSIGNMENT (( #29 ) ) ;
#28 = AXIS2_PLACEMENT_3D ( 'NONE', #87, #35, #201 ) ;
#29 = SURFACE_STYLE_USAGE ( .BOTH. , #129 ) ;
#30 = FILL_AREA_STYLE ('',( #127 ) ) ;
#31 = CIRCLE ( 'NONE', #159, 0.8500000000000025313 ) ;
#32 = PRESENTATION_LAYER_ASSIGNMENT (  '', '', ( #43 ) ) ;
#33 = SURFACE_STYLE_USAGE ( .BOTH. , #21 ) ;
#34 =( NAMED_UNIT ( * ) PLANE_ANGLE_UNIT ( ) SI_UNIT ( $, .RADIAN. ) );
#35 = DIRECTION ( 'NONE',  ( 1.000000000000000000, 0.0000000000000000000, 0.0000000000000000000 ) ) ;
#36 =( NAMED_UNIT ( * ) PLANE_ANGLE_UNIT ( ) SI_UNIT ( $, .RADIAN. ) );
#37 = PRESENTATION_LAYER_ASSIGNMENT (  '', '', ( #133 ) ) ;
#38 =( LENGTH_UNIT ( ) NAMED_UNIT ( * ) SI_UNIT ( .MILLI., .METRE. ) );
#39 =( NAMED_UNIT ( * ) PLANE_ANGLE_UNIT ( ) SI_UNIT ( $, .RADIAN. ) );
#40 = ORIENTED_EDGE ( 'NONE', *, *, #82, .F. ) ;
#41 = MECHANICAL_DESIGN_GEOMETRIC_PRESENTATION_REPRESENTATION (  '', ( #45 ), #105 ) ;
#42 = EDGE_LOOP ( 'NONE', ( #40 ) ) ;
#43 = STYLED_ITEM ( 'NONE', ( #171 ), #198 ) ;
#44 = PRESENTATION_STYLE_ASSIGNMENT (( #92 ) ) ;
#45 = STYLED_ITEM ( 'NONE', ( #157 ), #5 ) ;
#46 = PRESENTATION_LAYER_ASSIGNMENT (  '', '', ( #169 ) ) ;
#47 = VERTEX_POINT ( 'NONE', #195 ) ;
#48 = CARTESIAN_POINT ( 'NONE',  ( 0.1700000000000014833, 0.0000000000000000000, 0.0000000000000000000 ) ) ;
#49 =( NAMED_UNIT ( * ) SI_UNIT ( $, .STERADIAN. ) SOLID_ANGLE_UNIT ( ) );
#50 = CLOSED_SHELL ( 'NONE', ( #66, #88, #158 ) ) ;
#51 = CYLINDRICAL_SURFACE ( 'NONE', #136, 0.8500000000000025313 ) ;
#52 = PLANE ( 'NONE',  #115 ) ;
#53 = FILL_AREA_STYLE ('',( #74 ) ) ;
#54 = UNCERTAINTY_MEASURE_WITH_UNIT (LENGTH_MEASURE( 1.000000000000000082E-05 ), #38, 'distance_accuracy_value', 'NONE');
#55 = CYLINDRICAL_SURFACE ( 'NONE', #58, 0.8500000000000025313 ) ;
#56 = STYLED_ITEM ( 'NONE', ( #164 ), #88 ) ;
#57 = COLOUR_RGB ( '',0.7921568627450980005, 0.8196078431372548767, 0.9333333333333333481 ) ;
#58 = AXIS2_PLACEMENT_3D ( 'NONE', #165, #207, #121 ) ;
#59 = PLANE ( 'NONE',  #25 ) ;
#60 = FACE_OUTER_BOUND ( 'NONE', #143, .T. ) ;
#61 = EDGE_LOOP ( 'NONE', ( #10 ) ) ;
#62 = EDGE_LOOP ( 'NONE', ( #185 ) ) ;
#63 = AXIS2_PLACEMENT_3D ( 'NONE', #106, #149, #2 ) ;
#64 = CARTESIAN_POINT ( 'NONE',  ( -957.0000000000000000, 0.0000000000000000000, 0.0000000000000000000 ) ) ;
#65 =( NAMED_UNIT ( * ) SI_UNIT ( $, .STERADIAN. ) SOLID_ANGLE_UNIT ( ) );
#66 = ADVANCED_FACE ( 'NONE', ( #81 ), #202, .F. ) ;
#67 =( GEOMETRIC_REPRESENTATION_CONTEXT ( 3 ) GLOBAL_UNCERTAINTY_ASSIGNED_CONTEXT ( ( #114 ) ) GLOBAL_UNIT_ASSIGNED_CONTEXT ( ( #71, #134, #150 ) ) REPRESENTATION_CONTEXT ( 'NONE', 'WORKASPACE' ) );
#68 = ORIENTED_EDGE ( 'NONE', *, *, #109, .T. ) ;
#69 = CONICAL_SURFACE ( 'NONE', #28, 0.6799999999999999378, 0.7853981633974514986 ) ;
#70 = CARTESIAN_POINT ( 'NONE',  ( -5.204748896376250699E-17, 0.0000000000000000000, -0.6799999999999999378 ) ) ;
#71 =( LENGTH_UNIT ( ) NAMED_UNIT ( * ) SI_UNIT ( .MILLI., .METRE. ) );
#72 = DIRECTION ( 'NONE',  ( 0.0000000000000000000, 0.0000000000000000000, -1.000000000000000000 ) ) ;
#73 = PRESENTATION_LAYER_ASSIGNMENT (  '', '', ( #45 ) ) ;
#74 = FILL_AREA_STYLE_COLOUR ( '', #77 ) ;
#75 = PRODUCT_DEFINITION_SHAPE ( 'NONE', 'NONE',  #187 ) ;
#76 = CARTESIAN_POINT ( 'NONE',  ( 0.0000000000000000000, 0.0000000000000000000, 0.0000000000000000000 ) ) ;
#77 = COLOUR_RGB ( '',1.000000000000000000, 1.000000000000000000, 0.0000000000000000000 ) ;
#78 = APPLICATION_CONTEXT ( 'automotive_design' ) ;
#79 = COLOUR_RGB ( '',1.000000000000000000, 1.000000000000000000, 0.0000000000000000000 ) ;
#80 = UNCERTAINTY_MEASURE_WITH_UNIT (LENGTH_MEASURE( 1.000000000000000082E-05 ), #211, 'distance_accuracy_value', 'NONE');
#81 = FACE_OUTER_BOUND ( 'NONE', #62, .T. ) ;
#82 = EDGE_CURVE ( 'NONE', #153, #153, #31, .T. ) ;
#83 = DIRECTION ( 'NONE',  ( 0.0000000000000000000, 0.0000000000000000000, -1.000000000000000000 ) ) ;
#84 = ADVANCED_FACE ( 'NONE', ( #208, #26 ), #69, .T. ) ;
#85 = EDGE_LOOP ( 'NONE', ( #181 ) ) ;
#86 = DIRECTION ( 'NONE',  ( 1.000000000000000000, 0.0000000000000000000, 0.0000000000000000000 ) ) ;
#87 = CARTESIAN_POINT ( 'NONE',  ( -5.204748896376250699E-17, 0.0000000000000000000, 0.0000000000000000000 ) ) ;
#88 = ADVANCED_FACE ( 'NONE', ( #168, #126 ), #51, .T. ) ;
#89 = CARTESIAN_POINT ( 'NONE',  ( 22.99999999999999645, 0.0000000000000000000, -0.8500000000000025313 ) ) ;
#90 = FILL_AREA_STYLE_COLOUR ( '', #79 ) ;
#91 = EDGE_LOOP ( 'NONE', ( #139 ) ) ;
#92 = SURFACE_STYLE_USAGE ( .BOTH. , #17 ) ;
#93 = AXIS2_PLACEMENT_3D ( 'NONE', #175, #145, #161 ) ;
#94 = ORIENTED_EDGE ( 'NONE', *, *, #109, .F. ) ;
#95 = FILL_AREA_STYLE ('',( #124 ) ) ;
#96 = AXIS2_PLACEMENT_3D ( 'NONE', #64, #107, #110 ) ;
#97 = SURFACE_STYLE_FILL_AREA ( #30 ) ;
#98 = EDGE_CURVE ( 'NONE', #156, #156, #101, .T. ) ;
#99 = VERTEX_POINT ( 'NONE', #18 ) ;
#100 = EDGE_LOOP ( 'NONE', ( #68 ) ) ;
#101 = CIRCLE ( 'NONE', #118, 0.8500000000000025313 ) ;
#102 = CONICAL_SURFACE ( 'NONE', #96, 2414.213562373086916, 1.178097245096171308 ) ;
#103 = SURFACE_STYLE_USAGE ( .BOTH. , #166 ) ;
#104 =( NAMED_UNIT ( * ) PLANE_ANGLE_UNIT ( ) SI_UNIT ( $, .RADIAN. ) );
#105 =( GEOMETRIC_REPRESENTATION_CONTEXT ( 3 ) GLOBAL_UNCERTAINTY_ASSIGNED_CONTEXT ( ( #80 ) ) GLOBAL_UNIT_ASSIGNED_CONTEXT ( ( #211, #39, #108 ) ) REPRESENTATION_CONTEXT ( 'NONE', 'WORKASPACE' ) );
#106 = CARTESIAN_POINT ( 'NONE',  ( 22.99999999999999645, 0.0000000000000000000, 0.0000000000000000000 ) ) ;
#107 = DIRECTION ( 'NONE',  ( -1.000000000000000000, -0.0000000000000000000, -0.0000000000000000000 ) ) ;
#108 =( NAMED_UNIT ( * ) SI_UNIT ( $, .STERADIAN. ) SOLID_ANGLE_UNIT ( ) );
#109 = EDGE_CURVE ( 'NONE', #148, #148, #4, .T. ) ;
#110 = DIRECTION ( 'NONE',  ( 0.0000000000000000000, 0.0000000000000000000, 1.000000000000000000 ) ) ;
#111 = FACE_OUTER_BOUND ( 'NONE', #85, .T. ) ;
#112 = APPLICATION_PROTOCOL_DEFINITION ( 'draft international standard', 'automotive_design', 1998, #16 ) ;
#113 = APPLICATION_PROTOCOL_DEFINITION ( 'draft international standard', 'automotive_design', 1998, #78 ) ;
#114 = UNCERTAINTY_MEASURE_WITH_UNIT (LENGTH_MEASURE( 1.000000000000000082E-05 ), #71, 'distance_accuracy_value', 'NONE');
#115 = AXIS2_PLACEMENT_3D ( 'NONE', #177, #128, #190 ) ;
#116 = EDGE_LOOP ( 'NONE', ( #154 ) ) ;
#117 = SURFACE_STYLE_FILL_AREA ( #53 ) ;
#118 = AXIS2_PLACEMENT_3D ( 'NONE', #141, #146, #162 ) ;
#119 = PRODUCT ( '03-1623', '03-1623', '', ( #22 ) ) ;
#120 = EDGE_CURVE ( 'NONE', #99, #99, #183, .T. ) ;
#121 = DIRECTION ( 'NONE',  ( 0.0000000000000000000, 0.0000000000000000000, 1.000000000000000000 ) ) ;
#122 = MANIFOLD_SOLID_BREP ( 'ºÐÇÒ2[1]', #125 ) ;
#123 = CARTESIAN_POINT ( 'NONE',  ( 22.99999999999999645, 0.0000000000000000000, 0.0000000000000000000 ) ) ;
#124 = FILL_AREA_STYLE_COLOUR ( '', #57 ) ;
#125 = CLOSED_SHELL ( 'NONE', ( #173, #140, #84, #13 ) ) ;
#126 = FACE_OUTER_BOUND ( 'NONE', #91, .T. ) ;
#127 = FILL_AREA_STYLE_COLOUR ( '', #151 ) ;
#128 = DIRECTION ( 'NONE',  ( 1.000000000000000000, 0.0000000000000000000, 0.0000000000000000000 ) ) ;
#129 = SURFACE_SIDE_STYLE ('',( #144 ) ) ;
#130 = FACE_OUTER_BOUND ( 'NONE', #19, .T. ) ;
#131 =( NAMED_UNIT ( * ) SI_UNIT ( $, .STERADIAN. ) SOLID_ANGLE_UNIT ( ) );
#132 = CARTESIAN_POINT ( 'NONE',  ( -5.204748896376250699E-17, 0.0000000000000000000, 0.0000000000000000000 ) ) ;
#133 = STYLED_ITEM ( 'NONE', ( #27 ), #158 ) ;
#134 =( NAMED_UNIT ( * ) PLANE_ANGLE_UNIT ( ) SI_UNIT ( $, .RADIAN. ) );
#135 = FACE_OUTER_BOUND ( 'NONE', #116, .T. ) ;
#136 = AXIS2_PLACEMENT_3D ( 'NONE', #76, #14, #170 ) ;
#137 =( LENGTH_UNIT ( ) NAMED_UNIT ( * ) SI_UNIT ( .MILLI., .METRE. ) );
#138 = EDGE_CURVE ( 'NONE', #47, #47, #189, .T. ) ;
#139 = ORIENTED_EDGE ( 'NONE', *, *, #138, .T. ) ;
#140 = ADVANCED_FACE ( 'NONE', ( #9 ), #52, .F. ) ;
#141 = CARTESIAN_POINT ( 'NONE',  ( 22.99999999999999645, 0.0000000000000000000, 0.0000000000000000000 ) ) ;
#142 = CARTESIAN_POINT ( 'NONE',  ( 0.0000000000000000000, 0.0000000000000000000, 0.0000000000000000000 ) ) ;
#143 = EDGE_LOOP ( 'NONE', ( #197 ) ) ;
#144 = SURFACE_STYLE_FILL_AREA ( #186 ) ;
#145 = DIRECTION ( 'NONE',  ( -1.000000000000000000, -0.0000000000000000000, -0.0000000000000000000 ) ) ;
#146 = DIRECTION ( 'NONE',  ( 1.000000000000000000, 0.0000000000000000000, 0.0000000000000000000 ) ) ;
#147 = SURFACE_SIDE_STYLE ('',( #182 ) ) ;
#148 = VERTEX_POINT ( 'NONE', #70 ) ;
#149 = DIRECTION ( 'NONE',  ( 1.000000000000000000, 0.0000000000000000000, 0.0000000000000000000 ) ) ;
#150 =( NAMED_UNIT ( * ) SI_UNIT ( $, .STERADIAN. ) SOLID_ANGLE_UNIT ( ) );
#151 = COLOUR_RGB ( '',0.7921568627450980005, 0.8196078431372548767, 0.9333333333333333481 ) ;
#152 = FILL_AREA_STYLE ('',( #180 ) ) ;
#153 = VERTEX_POINT ( 'NONE', #203 ) ;
#154 = ORIENTED_EDGE ( 'NONE', *, *, #98, .T. ) ;
#155 = UNCERTAINTY_MEASURE_WITH_UNIT (LENGTH_MEASURE( 1.000000000000000082E-05 ), #15, 'distance_accuracy_value', 'NONE');
#156 = VERTEX_POINT ( 'NONE', #89 ) ;
#157 = PRESENTATION_STYLE_ASSIGNMENT (( #193 ) ) ;
#158 = ADVANCED_FACE ( 'NONE', ( #130 ), #102, .T. ) ;
#159 = AXIS2_PLACEMENT_3D ( 'NONE', #48, #86, #72 ) ;
#160 =( NAMED_UNIT ( * ) PLANE_ANGLE_UNIT ( ) SI_UNIT ( $, .RADIAN. ) );
#161 = DIRECTION ( 'NONE',  ( 0.0000000000000000000, 0.0000000000000000000, 1.000000000000000000 ) ) ;
#162 = DIRECTION ( 'NONE',  ( 0.0000000000000000000, 0.0000000000000000000, -1.000000000000000000 ) ) ;
#163 = DIRECTION ( 'NONE',  ( 1.000000000000000000, 0.0000000000000000000, 0.0000000000000000000 ) ) ;
#164 = PRESENTATION_STYLE_ASSIGNMENT (( #33 ) ) ;
#165 = CARTESIAN_POINT ( 'NONE',  ( 0.0000000000000000000, 0.0000000000000000000, 0.0000000000000000000 ) ) ;
#166 = SURFACE_SIDE_STYLE ('',( #210 ) ) ;
#167 = PRODUCT_RELATED_PRODUCT_CATEGORY ( 'part', '', ( #119 ) ) ;
#168 = FACE_OUTER_BOUND ( 'NONE', #61, .T. ) ;
#169 = STYLED_ITEM ( 'NONE', ( #44 ), #122 ) ;
#170 = DIRECTION ( 'NONE',  ( 0.0000000000000000000, 0.0000000000000000000, 1.000000000000000000 ) ) ;
#171 = PRESENTATION_STYLE_ASSIGNMENT (( #103 ) ) ;
#172 = DIRECTION ( 'NONE',  ( -1.000000000000000000, -0.0000000000000000000, -0.0000000000000000000 ) ) ;
#173 = ADVANCED_FACE ( 'NONE', ( #111, #60 ), #55, .T. ) ;
#174 =( LENGTH_UNIT ( ) NAMED_UNIT ( * ) SI_UNIT ( .MILLI., .METRE. ) );
#175 = CARTESIAN_POINT ( 'NONE',  ( 42.64791847198286234, 0.0000000000000000000, 0.0000000000000000000 ) ) ;
#176 = EDGE_LOOP ( 'NONE', ( #94 ) ) ;
#177 = CARTESIAN_POINT ( 'NONE',  ( -5.204748896376250699E-17, 0.8499999999999999778, 0.0000000000000000000 ) ) ;
#178 = DIRECTION ( 'NONE',  ( 0.0000000000000000000, 0.0000000000000000000, 1.000000000000000000 ) ) ;
#179 = PRODUCT_DEFINITION_FORMATION_WITH_SPECIFIED_SOURCE ( 'ANY', '', #119, .NOT_KNOWN. ) ;
#180 = FILL_AREA_STYLE_COLOUR ( '', #194 ) ;
#181 = ORIENTED_EDGE ( 'NONE', *, *, #82, .T. ) ;
#182 = SURFACE_STYLE_FILL_AREA ( #95 ) ;
#183 = CIRCLE ( 'NONE', #184, 0.8500000000000025313 ) ;
#184 = AXIS2_PLACEMENT_3D ( 'NONE', #123, #12, #83 ) ;
#185 = ORIENTED_EDGE ( 'NONE', *, *, #120, .F. ) ;
#186 = FILL_AREA_STYLE ('',( #90 ) ) ;
#187 = PRODUCT_DEFINITION ( 'UNKNOWN', '', #179, #199 ) ;
#188 = DIRECTION ( 'NONE',  ( 0.0000000000000000000, 0.0000000000000000000, -1.000000000000000000 ) ) ;
#189 = CIRCLE ( 'NONE', #93, 0.8500000000000051958 ) ;
#190 = DIRECTION ( 'NONE',  ( 0.0000000000000000000, 0.0000000000000000000, -1.000000000000000000 ) ) ;
#191 = CARTESIAN_POINT ( 'NONE',  ( 22.99999999999999645, 0.0000000000000000000, 0.0000000000000000000 ) ) ;
#192 = UNCERTAINTY_MEASURE_WITH_UNIT (LENGTH_MEASURE( 1.000000000000000082E-05 ), #137, 'distance_accuracy_value', 'NONE');
#193 = SURFACE_STYLE_USAGE ( .BOTH. , #147 ) ;
#194 = COLOUR_RGB ( '',0.7921568627450980005, 0.8196078431372548767, 0.9333333333333333481 ) ;
#195 = CARTESIAN_POINT ( 'NONE',  ( 42.64791847198286234, 0.0000000000000000000, 0.8500000000000051958 ) ) ;
#196 = PRESENTATION_LAYER_ASSIGNMENT (  '', '', ( #56 ) ) ;
#197 = ORIENTED_EDGE ( 'NONE', *, *, #98, .F. ) ;
#198 = ADVANCED_BREP_SHAPE_REPRESENTATION ( '03-1623', ( #122, #5, #200 ), #67 ) ;
#199 = PRODUCT_DEFINITION_CONTEXT ( 'detailed design', #16, 'design' ) ;
#200 = AXIS2_PLACEMENT_3D ( 'NONE', #142, #178, #206 ) ;
#201 = DIRECTION ( 'NONE',  ( 0.0000000000000000000, 0.0000000000000000000, -1.000000000000000000 ) ) ;
#202 = PLANE ( 'NONE',  #63 ) ;
#203 = CARTESIAN_POINT ( 'NONE',  ( 0.1700000000000014833, 0.0000000000000000000, -0.8500000000000025313 ) ) ;
#204 =( NAMED_UNIT ( * ) SI_UNIT ( $, .STERADIAN. ) SOLID_ANGLE_UNIT ( ) );
#205 =( GEOMETRIC_REPRESENTATION_CONTEXT ( 3 ) GLOBAL_UNCERTAINTY_ASSIGNED_CONTEXT ( ( #212 ) ) GLOBAL_UNIT_ASSIGNED_CONTEXT ( ( #174, #34, #204 ) ) REPRESENTATION_CONTEXT ( 'NONE', 'WORKASPACE' ) );
#206 = DIRECTION ( 'NONE',  ( 1.000000000000000000, 0.0000000000000000000, 0.0000000000000000000 ) ) ;
#207 = DIRECTION ( 'NONE',  ( -1.000000000000000000, -0.0000000000000000000, -0.0000000000000000000 ) ) ;
#208 = FACE_OUTER_BOUND ( 'NONE', #42, .T. ) ;
#209 =( GEOMETRIC_REPRESENTATION_CONTEXT ( 3 ) GLOBAL_UNCERTAINTY_ASSIGNED_CONTEXT ( ( #155 ) ) GLOBAL_UNIT_ASSIGNED_CONTEXT ( ( #15, #160, #49 ) ) REPRESENTATION_CONTEXT ( 'NONE', 'WORKASPACE' ) );
#210 = SURFACE_STYLE_FILL_AREA ( #152 ) ;
#211 =( LENGTH_UNIT ( ) NAMED_UNIT ( * ) SI_UNIT ( .MILLI., .METRE. ) );
#212 = UNCERTAINTY_MEASURE_WITH_UNIT (LENGTH_MEASURE( 1.000000000000000082E-05 ), #174, 'distance_accuracy_value', 'NONE');
#213 = DIRECTION ( 'NONE',  ( 0.0000000000000000000, 0.0000000000000000000, -1.000000000000000000 ) ) ;
ENDSEC;
END-ISO-10303-21;
