ISO-10303-21;
HEADER;
FILE_DESCRIPTION (( 'STEP AP214' ),
    '1' );
FILE_NAME ('03-1624.STEP',
    '2021-10-01T05:02:09',
    ( 'USER' ),
    ( '' ),
    'SwSTEP 2.0',
    'SolidWorks 2018',
    '' );
FILE_SCHEMA (( 'AUTOMOTIVE_DESIGN' ));
ENDSEC;

DATA;
#1 = DIRECTION ( 'NONE',  ( 0.0000000000000000000, 0.0000000000000000000, 1.000000000000000000 ) ) ;
#2 = CONICAL_SURFACE ( 'NONE', #50, 2414.213562373062814, 1.178097245096167756 ) ;
#3 = CARTESIAN_POINT ( 'NONE',  ( -954.0000000000000000, 0.0000000000000000000, 0.0000000000000000000 ) ) ;
#4 = ADVANCED_FACE ( 'NONE', ( #182 ), #98, .T. ) ;
#5 = FILL_AREA_STYLE_COLOUR ( '', #121 ) ;
#6 = EDGE_LOOP ( 'NONE', ( #191 ) ) ;
#7 = EDGE_LOOP ( 'NONE', ( #95 ) ) ;
#8 = PRESENTATION_LAYER_ASSIGNMENT (  '', '', ( #27 ) ) ;
#9 = DIRECTION ( 'NONE',  ( 0.0000000000000000000, 0.0000000000000000000, -1.000000000000000000 ) ) ;
#10 = SURFACE_SIDE_STYLE ('',( #213 ) ) ;
#11 = ORIENTED_EDGE ( 'NONE', *, *, #80, .F. ) ;
#12 = DIRECTION ( 'NONE',  ( 1.000000000000000000, 0.0000000000000000000, 0.0000000000000000000 ) ) ;
#13 = COLOUR_RGB ( '',0.7921568627450980005, 0.8196078431372548767, 0.9333333333333333481 ) ;
#14 = FACE_OUTER_BOUND ( 'NONE', #125, .T. ) ;
#15 = PRODUCT_RELATED_PRODUCT_CATEGORY ( 'part', '', ( #97 ) ) ;
#16 = ORIENTED_EDGE ( 'NONE', *, *, #70, .F. ) ;
#17 = AXIS2_PLACEMENT_3D ( 'NONE', #49, #19, #34 ) ;
#18 = DIRECTION ( 'NONE',  ( -1.000000000000000000, -0.0000000000000000000, -0.0000000000000000000 ) ) ;
#19 = DIRECTION ( 'NONE',  ( 1.000000000000000000, 0.0000000000000000000, 0.0000000000000000000 ) ) ;
#20 =( NAMED_UNIT ( * ) PLANE_ANGLE_UNIT ( ) SI_UNIT ( $, .RADIAN. ) );
#21 = ORIENTED_EDGE ( 'NONE', *, *, #94, .F. ) ;
#22 =( LENGTH_UNIT ( ) NAMED_UNIT ( * ) SI_UNIT ( .MILLI., .METRE. ) );
#23 = PRODUCT_DEFINITION_FORMATION_WITH_SPECIFIED_SOURCE ( 'ANY', '', #97, .NOT_KNOWN. ) ;
#24 = DIRECTION ( 'NONE',  ( 0.0000000000000000000, 0.0000000000000000000, 1.000000000000000000 ) ) ;
#25 = CARTESIAN_POINT ( 'NONE',  ( 0.0000000000000000000, 0.0000000000000000000, 0.0000000000000000000 ) ) ;
#26 =( NAMED_UNIT ( * ) SI_UNIT ( $, .STERADIAN. ) SOLID_ANGLE_UNIT ( ) );
#27 = STYLED_ITEM ( 'NONE', ( #60 ), #51 ) ;
#28 = SURFACE_STYLE_FILL_AREA ( #167 ) ;
#29 = ADVANCED_BREP_SHAPE_REPRESENTATION ( '03-1624', ( #51, #192, #42 ), #134 ) ;
#30 = AXIS2_PLACEMENT_3D ( 'NONE', #188, #117, #183 ) ;
#31 = DIRECTION ( 'NONE',  ( -1.000000000000000000, -0.0000000000000000000, -0.0000000000000000000 ) ) ;
#32 = PRODUCT_DEFINITION ( 'UNKNOWN', '', #23, #210 ) ;
#33 = FILL_AREA_STYLE_COLOUR ( '', #169 ) ;
#34 = DIRECTION ( 'NONE',  ( 0.0000000000000000000, 0.0000000000000000000, -1.000000000000000000 ) ) ;
#35 = CIRCLE ( 'NONE', #116, 0.9000000000000027978 ) ;
#36 = SURFACE_STYLE_USAGE ( .BOTH. , #168 ) ;
#37 = AXIS2_PLACEMENT_3D ( 'NONE', #202, #196, #193 ) ;
#38 = DIRECTION ( 'NONE',  ( 1.000000000000000000, 0.0000000000000000000, 0.0000000000000000000 ) ) ;
#39 = ORIENTED_EDGE ( 'NONE', *, *, #113, .T. ) ;
#40 = CIRCLE ( 'NONE', #184, 0.9000000000000055733 ) ;
#41 = PRESENTATION_STYLE_ASSIGNMENT (( #69 ) ) ;
#42 = AXIS2_PLACEMENT_3D ( 'NONE', #118, #24, #38 ) ;
#43 = SURFACE_STYLE_FILL_AREA ( #72 ) ;
#44 = CONICAL_SURFACE ( 'NONE', #206, 0.7200000000000053024, 0.7853981633974391752 ) ;
#45 = FACE_OUTER_BOUND ( 'NONE', #6, .T. ) ;
#46 = DIRECTION ( 'NONE',  ( 0.0000000000000000000, 0.0000000000000000000, 1.000000000000000000 ) ) ;
#47 = FACE_OUTER_BOUND ( 'NONE', #102, .T. ) ;
#48 = ADVANCED_FACE ( 'NONE', ( #85, #149 ), #44, .T. ) ;
#49 = CARTESIAN_POINT ( 'NONE',  ( 24.00000000000000000, 0.0000000000000000000, 0.0000000000000000000 ) ) ;
#50 = AXIS2_PLACEMENT_3D ( 'NONE', #3, #31, #205 ) ;
#51 = MANIFOLD_SOLID_BREP ( 'ºÐÇÒ2[1]', #101 ) ;
#52 = ORIENTED_EDGE ( 'NONE', *, *, #70, .T. ) ;
#53 = EDGE_LOOP ( 'NONE', ( #16 ) ) ;
#54 =( LENGTH_UNIT ( ) NAMED_UNIT ( * ) SI_UNIT ( .MILLI., .METRE. ) );
#55 = SURFACE_STYLE_FILL_AREA ( #154 ) ;
#56 = DIRECTION ( 'NONE',  ( 0.0000000000000000000, 0.0000000000000000000, -1.000000000000000000 ) ) ;
#57 = COLOUR_RGB ( '',0.7921568627450980005, 0.8196078431372548767, 0.9333333333333333481 ) ;
#58 = FACE_OUTER_BOUND ( 'NONE', #148, .T. ) ;
#59 = EDGE_CURVE ( 'NONE', #204, #204, #40, .T. ) ;
#60 = PRESENTATION_STYLE_ASSIGNMENT (( #130 ) ) ;
#61 = CIRCLE ( 'NONE', #37, 0.7200000000000053024 ) ;
#62 =( GEOMETRIC_REPRESENTATION_CONTEXT ( 3 ) GLOBAL_UNCERTAINTY_ASSIGNED_CONTEXT ( ( #207 ) ) GLOBAL_UNIT_ASSIGNED_CONTEXT ( ( #54, #201, #198 ) ) REPRESENTATION_CONTEXT ( 'NONE', 'WORKASPACE' ) );
#63 = ADVANCED_FACE ( 'NONE', ( #141, #14 ), #126, .T. ) ;
#64 = APPLICATION_PROTOCOL_DEFINITION ( 'draft international standard', 'automotive_design', 1998, #65 ) ;
#65 = APPLICATION_CONTEXT ( 'automotive_design' ) ;
#66 = FACE_OUTER_BOUND ( 'NONE', #93, .T. ) ;
#67 = PRODUCT_CONTEXT ( 'NONE', #88, 'mechanical' ) ;
#68 = PRESENTATION_STYLE_ASSIGNMENT (( #36 ) ) ;
#69 = SURFACE_STYLE_USAGE ( .BOTH. , #71 ) ;
#70 = EDGE_CURVE ( 'NONE', #211, #211, #35, .T. ) ;
#71 = SURFACE_SIDE_STYLE ('',( #43 ) ) ;
#72 = FILL_AREA_STYLE ('',( #87 ) ) ;
#73 = MECHANICAL_DESIGN_GEOMETRIC_PRESENTATION_REPRESENTATION (  '', ( #96 ), #62 ) ;
#74 = PLANE ( 'NONE',  #190 ) ;
#75 = FACE_OUTER_BOUND ( 'NONE', #53, .T. ) ;
#76 =( GEOMETRIC_REPRESENTATION_CONTEXT ( 3 ) GLOBAL_UNCERTAINTY_ASSIGNED_CONTEXT ( ( #112 ) ) GLOBAL_UNIT_ASSIGNED_CONTEXT ( ( #22, #20, #105 ) ) REPRESENTATION_CONTEXT ( 'NONE', 'WORKASPACE' ) );
#77 = EDGE_LOOP ( 'NONE', ( #21 ) ) ;
#78 = PRESENTATION_STYLE_ASSIGNMENT (( #135 ) ) ;
#79 =( NAMED_UNIT ( * ) PLANE_ANGLE_UNIT ( ) SI_UNIT ( $, .RADIAN. ) );
#80 = EDGE_CURVE ( 'NONE', #115, #115, #209, .T. ) ;
#81 = ADVANCED_FACE ( 'NONE', ( #58 ), #2, .T. ) ;
#82 = CYLINDRICAL_SURFACE ( 'NONE', #122, 0.9000000000000027978 ) ;
#83 = FILL_AREA_STYLE_COLOUR ( '', #57 ) ;
#84 = PRESENTATION_LAYER_ASSIGNMENT (  '', '', ( #96 ) ) ;
#85 = FACE_OUTER_BOUND ( 'NONE', #7, .T. ) ;
#86 = PRODUCT_DEFINITION_SHAPE ( 'NONE', 'NONE',  #32 ) ;
#87 = FILL_AREA_STYLE_COLOUR ( '', #162 ) ;
#88 = APPLICATION_CONTEXT ( 'automotive_design' ) ;
#89 = DIRECTION ( 'NONE',  ( 0.0000000000000000000, 0.0000000000000000000, -1.000000000000000000 ) ) ;
#90 = MECHANICAL_DESIGN_GEOMETRIC_PRESENTATION_REPRESENTATION (  '', ( #111 ), #76 ) ;
#91 = CARTESIAN_POINT ( 'NONE',  ( 24.00000000000000000, 0.0000000000000000000, 0.0000000000000000000 ) ) ;
#92 = UNCERTAINTY_MEASURE_WITH_UNIT (LENGTH_MEASURE( 1.000000000000000082E-05 ), #124, 'distance_accuracy_value', 'NONE');
#93 = EDGE_LOOP ( 'NONE', ( #11 ) ) ;
#94 = EDGE_CURVE ( 'NONE', #120, #120, #61, .T. ) ;
#95 = ORIENTED_EDGE ( 'NONE', *, *, #113, .F. ) ;
#96 = STYLED_ITEM ( 'NONE', ( #78 ), #81 ) ;
#97 = PRODUCT ( '03-1624', '03-1624', '', ( #67 ) ) ;
#98 = PLANE ( 'NONE',  #17 ) ;
#99 =( NAMED_UNIT ( * ) PLANE_ANGLE_UNIT ( ) SI_UNIT ( $, .RADIAN. ) );
#100 = PRESENTATION_LAYER_ASSIGNMENT (  '', '', ( #111 ) ) ;
#101 = CLOSED_SHELL ( 'NONE', ( #195, #150, #48, #4 ) ) ;
#102 = EDGE_LOOP ( 'NONE', ( #39 ) ) ;
#103 = APPLICATION_PROTOCOL_DEFINITION ( 'draft international standard', 'automotive_design', 1998, #88 ) ;
#104 = CARTESIAN_POINT ( 'NONE',  ( -5.510910596163088939E-17, 0.0000000000000000000, 0.0000000000000000000 ) ) ;
#105 =( NAMED_UNIT ( * ) SI_UNIT ( $, .STERADIAN. ) SOLID_ANGLE_UNIT ( ) );
#106 =( NAMED_UNIT ( * ) SI_UNIT ( $, .STERADIAN. ) SOLID_ANGLE_UNIT ( ) );
#107 =( NAMED_UNIT ( * ) PLANE_ANGLE_UNIT ( ) SI_UNIT ( $, .RADIAN. ) );
#108 = DIRECTION ( 'NONE',  ( -1.000000000000000000, -0.0000000000000000000, -0.0000000000000000000 ) ) ;
#109 = AXIS2_PLACEMENT_3D ( 'NONE', #25, #164, #46 ) ;
#110 = FILL_AREA_STYLE ('',( #83 ) ) ;
#111 = STYLED_ITEM ( 'NONE', ( #41 ), #29 ) ;
#112 = UNCERTAINTY_MEASURE_WITH_UNIT (LENGTH_MEASURE( 1.000000000000000082E-05 ), #22, 'distance_accuracy_value', 'NONE');
#113 = EDGE_CURVE ( 'NONE', #138, #138, #172, .T. ) ;
#114 = DIRECTION ( 'NONE',  ( 1.000000000000000000, 0.0000000000000000000, 0.0000000000000000000 ) ) ;
#115 = VERTEX_POINT ( 'NONE', #143 ) ;
#116 = AXIS2_PLACEMENT_3D ( 'NONE', #91, #114, #56 ) ;
#117 = DIRECTION ( 'NONE',  ( 1.000000000000000000, 0.0000000000000000000, 0.0000000000000000000 ) ) ;
#118 = CARTESIAN_POINT ( 'NONE',  ( 0.0000000000000000000, 0.0000000000000000000, 0.0000000000000000000 ) ) ;
#119 =( NAMED_UNIT ( * ) SI_UNIT ( $, .STERADIAN. ) SOLID_ANGLE_UNIT ( ) );
#120 = VERTEX_POINT ( 'NONE', #123 ) ;
#121 = COLOUR_RGB ( '',1.000000000000000000, 1.000000000000000000, 0.0000000000000000000 ) ;
#122 = AXIS2_PLACEMENT_3D ( 'NONE', #155, #108, #157 ) ;
#123 = CARTESIAN_POINT ( 'NONE',  ( -5.510910596163088939E-17, 0.0000000000000000000, -0.7200000000000053024 ) ) ;
#124 =( LENGTH_UNIT ( ) NAMED_UNIT ( * ) SI_UNIT ( .MILLI., .METRE. ) );
#125 = EDGE_LOOP ( 'NONE', ( #146 ) ) ;
#126 = CYLINDRICAL_SURFACE ( 'NONE', #109, 0.9000000000000027978 ) ;
#127 = ORIENTED_EDGE ( 'NONE', *, *, #59, .F. ) ;
#128 = UNCERTAINTY_MEASURE_WITH_UNIT (LENGTH_MEASURE( 1.000000000000000082E-05 ), #200, 'distance_accuracy_value', 'NONE');
#129 = AXIS2_PLACEMENT_3D ( 'NONE', #185, #181, #140 ) ;
#130 = SURFACE_STYLE_USAGE ( .BOTH. , #10 ) ;
#131 = SURFACE_SIDE_STYLE ('',( #28 ) ) ;
#132 = ADVANCED_FACE ( 'NONE', ( #75 ), #203, .F. ) ;
#133 = FILL_AREA_STYLE_COLOUR ( '', #13 ) ;
#134 =( GEOMETRIC_REPRESENTATION_CONTEXT ( 3 ) GLOBAL_UNCERTAINTY_ASSIGNED_CONTEXT ( ( #151 ) ) GLOBAL_UNIT_ASSIGNED_CONTEXT ( ( #145, #107, #106 ) ) REPRESENTATION_CONTEXT ( 'NONE', 'WORKASPACE' ) );
#135 = SURFACE_STYLE_USAGE ( .BOTH. , #131 ) ;
#136 = EDGE_LOOP ( 'NONE', ( #142 ) ) ;
#137 = CLOSED_SHELL ( 'NONE', ( #132, #63, #81 ) ) ;
#138 = VERTEX_POINT ( 'NONE', #139 ) ;
#139 = CARTESIAN_POINT ( 'NONE',  ( 0.1800000000000007150, 0.0000000000000000000, -0.9000000000000027978 ) ) ;
#140 = DIRECTION ( 'NONE',  ( 0.0000000000000000000, 0.0000000000000000000, -1.000000000000000000 ) ) ;
#141 = FACE_OUTER_BOUND ( 'NONE', #187, .T. ) ;
#142 = ORIENTED_EDGE ( 'NONE', *, *, #80, .T. ) ;
#143 = CARTESIAN_POINT ( 'NONE',  ( 24.00000000000000000, 0.0000000000000000000, -0.9000000000000027978 ) ) ;
#144 = CARTESIAN_POINT ( 'NONE',  ( 45.62720779386420844, 0.0000000000000000000, 0.9000000000000055733 ) ) ;
#145 =( LENGTH_UNIT ( ) NAMED_UNIT ( * ) SI_UNIT ( .MILLI., .METRE. ) );
#146 = ORIENTED_EDGE ( 'NONE', *, *, #59, .T. ) ;
#147 =( GEOMETRIC_REPRESENTATION_CONTEXT ( 3 ) GLOBAL_UNCERTAINTY_ASSIGNED_CONTEXT ( ( #128 ) ) GLOBAL_UNIT_ASSIGNED_CONTEXT ( ( #200, #156, #26 ) ) REPRESENTATION_CONTEXT ( 'NONE', 'WORKASPACE' ) );
#148 = EDGE_LOOP ( 'NONE', ( #127 ) ) ;
#149 = FACE_BOUND ( 'NONE', #77, .T. ) ;
#150 = ADVANCED_FACE ( 'NONE', ( #45 ), #74, .F. ) ;
#151 = UNCERTAINTY_MEASURE_WITH_UNIT (LENGTH_MEASURE( 1.000000000000000082E-05 ), #145, 'distance_accuracy_value', 'NONE');
#152 = CARTESIAN_POINT ( 'NONE',  ( 24.00000000000000000, 0.0000000000000000000, -0.9000000000000027978 ) ) ;
#153 = MECHANICAL_DESIGN_GEOMETRIC_PRESENTATION_REPRESENTATION (  '', ( #177 ), #147 ) ;
#154 = FILL_AREA_STYLE ('',( #133 ) ) ;
#155 = CARTESIAN_POINT ( 'NONE',  ( 0.0000000000000000000, 0.0000000000000000000, 0.0000000000000000000 ) ) ;
#156 =( NAMED_UNIT ( * ) PLANE_ANGLE_UNIT ( ) SI_UNIT ( $, .RADIAN. ) );
#157 = DIRECTION ( 'NONE',  ( 0.0000000000000000000, 0.0000000000000000000, 1.000000000000000000 ) ) ;
#158 =( GEOMETRIC_REPRESENTATION_CONTEXT ( 3 ) GLOBAL_UNCERTAINTY_ASSIGNED_CONTEXT ( ( #166 ) ) GLOBAL_UNIT_ASSIGNED_CONTEXT ( ( #160, #99, #159 ) ) REPRESENTATION_CONTEXT ( 'NONE', 'WORKASPACE' ) );
#159 =( NAMED_UNIT ( * ) SI_UNIT ( $, .STERADIAN. ) SOLID_ANGLE_UNIT ( ) );
#160 =( LENGTH_UNIT ( ) NAMED_UNIT ( * ) SI_UNIT ( .MILLI., .METRE. ) );
#161 = PRESENTATION_LAYER_ASSIGNMENT (  '', '', ( #177 ) ) ;
#162 = COLOUR_RGB ( '',0.7921568627450980005, 0.8196078431372548767, 0.9333333333333333481 ) ;
#163 = SHAPE_DEFINITION_REPRESENTATION ( #86, #29 ) ;
#164 = DIRECTION ( 'NONE',  ( -1.000000000000000000, -0.0000000000000000000, -0.0000000000000000000 ) ) ;
#165 = MECHANICAL_DESIGN_GEOMETRIC_PRESENTATION_REPRESENTATION (  '', ( #197 ), #158 ) ;
#166 = UNCERTAINTY_MEASURE_WITH_UNIT (LENGTH_MEASURE( 1.000000000000000082E-05 ), #160, 'distance_accuracy_value', 'NONE');
#167 = FILL_AREA_STYLE ('',( #33 ) ) ;
#168 = SURFACE_SIDE_STYLE ('',( #55 ) ) ;
#169 = COLOUR_RGB ( '',1.000000000000000000, 1.000000000000000000, 0.0000000000000000000 ) ;
#170 = FILL_AREA_STYLE ('',( #5 ) ) ;
#171 = SURFACE_SIDE_STYLE ('',( #176 ) ) ;
#172 = CIRCLE ( 'NONE', #30, 0.9000000000000027978 ) ;
#173 = DIRECTION ( 'NONE',  ( 0.0000000000000000000, 0.0000000000000000000, -1.000000000000000000 ) ) ;
#174 = CARTESIAN_POINT ( 'NONE',  ( -5.510910596163088939E-17, 0.9000000000000000222, 0.0000000000000000000 ) ) ;
#175 = DIRECTION ( 'NONE',  ( 1.000000000000000000, 0.0000000000000000000, 0.0000000000000000000 ) ) ;
#176 = SURFACE_STYLE_FILL_AREA ( #170 ) ;
#177 = STYLED_ITEM ( 'NONE', ( #179 ), #63 ) ;
#178 = PRESENTATION_LAYER_ASSIGNMENT (  '', '', ( #197 ) ) ;
#179 = PRESENTATION_STYLE_ASSIGNMENT (( #189 ) ) ;
#180 = CARTESIAN_POINT ( 'NONE',  ( 24.00000000000000000, 0.0000000000000000000, 0.0000000000000000000 ) ) ;
#181 = DIRECTION ( 'NONE',  ( 1.000000000000000000, 0.0000000000000000000, 0.0000000000000000000 ) ) ;
#182 = FACE_OUTER_BOUND ( 'NONE', #136, .T. ) ;
#183 = DIRECTION ( 'NONE',  ( 0.0000000000000000000, 0.0000000000000000000, -1.000000000000000000 ) ) ;
#184 = AXIS2_PLACEMENT_3D ( 'NONE', #186, #18, #1 ) ;
#185 = CARTESIAN_POINT ( 'NONE',  ( 24.00000000000000000, 0.0000000000000000000, 0.0000000000000000000 ) ) ;
#186 = CARTESIAN_POINT ( 'NONE',  ( 45.62720779386420844, 0.0000000000000000000, 0.0000000000000000000 ) ) ;
#187 = EDGE_LOOP ( 'NONE', ( #52 ) ) ;
#188 = CARTESIAN_POINT ( 'NONE',  ( 0.1800000000000007150, 0.0000000000000000000, 0.0000000000000000000 ) ) ;
#189 = SURFACE_STYLE_USAGE ( .BOTH. , #171 ) ;
#190 = AXIS2_PLACEMENT_3D ( 'NONE', #174, #199, #89 ) ;
#191 = ORIENTED_EDGE ( 'NONE', *, *, #94, .T. ) ;
#192 = MANIFOLD_SOLID_BREP ( 'ºÐÇÒ2[2]', #137 ) ;
#193 = DIRECTION ( 'NONE',  ( 0.0000000000000000000, 0.0000000000000000000, -1.000000000000000000 ) ) ;
#194 =( GEOMETRIC_REPRESENTATION_CONTEXT ( 3 ) GLOBAL_UNCERTAINTY_ASSIGNED_CONTEXT ( ( #92 ) ) GLOBAL_UNIT_ASSIGNED_CONTEXT ( ( #124, #79, #119 ) ) REPRESENTATION_CONTEXT ( 'NONE', 'WORKASPACE' ) );
#195 = ADVANCED_FACE ( 'NONE', ( #47, #66 ), #82, .T. ) ;
#196 = DIRECTION ( 'NONE',  ( -1.000000000000000000, -0.0000000000000000000, -0.0000000000000000000 ) ) ;
#197 = STYLED_ITEM ( 'NONE', ( #68 ), #192 ) ;
#198 =( NAMED_UNIT ( * ) SI_UNIT ( $, .STERADIAN. ) SOLID_ANGLE_UNIT ( ) );
#199 = DIRECTION ( 'NONE',  ( 1.000000000000000000, 0.0000000000000000000, 0.0000000000000000000 ) ) ;
#200 =( LENGTH_UNIT ( ) NAMED_UNIT ( * ) SI_UNIT ( .MILLI., .METRE. ) );
#201 =( NAMED_UNIT ( * ) PLANE_ANGLE_UNIT ( ) SI_UNIT ( $, .RADIAN. ) );
#202 = CARTESIAN_POINT ( 'NONE',  ( -5.510910596163088939E-17, 0.0000000000000000000, 0.0000000000000000000 ) ) ;
#203 = PLANE ( 'NONE',  #212 ) ;
#204 = VERTEX_POINT ( 'NONE', #144 ) ;
#205 = DIRECTION ( 'NONE',  ( 0.0000000000000000000, 0.0000000000000000000, 1.000000000000000000 ) ) ;
#206 = AXIS2_PLACEMENT_3D ( 'NONE', #104, #12, #9 ) ;
#207 = UNCERTAINTY_MEASURE_WITH_UNIT (LENGTH_MEASURE( 1.000000000000000082E-05 ), #54, 'distance_accuracy_value', 'NONE');
#208 = MECHANICAL_DESIGN_GEOMETRIC_PRESENTATION_REPRESENTATION (  '', ( #27 ), #194 ) ;
#209 = CIRCLE ( 'NONE', #129, 0.9000000000000027978 ) ;
#210 = PRODUCT_DEFINITION_CONTEXT ( 'detailed design', #65, 'design' ) ;
#211 = VERTEX_POINT ( 'NONE', #152 ) ;
#212 = AXIS2_PLACEMENT_3D ( 'NONE', #180, #175, #173 ) ;
#213 = SURFACE_STYLE_FILL_AREA ( #110 ) ;
ENDSEC;
END-ISO-10303-21;
