ISO-10303-21;
HEADER;
FILE_DESCRIPTION (( 'STEP AP214' ),
    '1' );
FILE_NAME ('03-1626.STEP',
    '2021-10-01T05:02:36',
    ( 'USER' ),
    ( '' ),
    'SwSTEP 2.0',
    'SolidWorks 2018',
    '' );
FILE_SCHEMA (( 'AUTOMOTIVE_DESIGN' ));
ENDSEC;

DATA;
#1 = CIRCLE ( 'NONE', #3, 1.000000000000005995 ) ;
#2 = DIRECTION ( 'NONE',  ( 1.000000000000000000, 0.0000000000000000000, 0.0000000000000000000 ) ) ;
#3 = AXIS2_PLACEMENT_3D ( 'NONE', #112, #197, #111 ) ;
#4 =( NAMED_UNIT ( * ) PLANE_ANGLE_UNIT ( ) SI_UNIT ( $, .RADIAN. ) );
#5 = ORIENTED_EDGE ( 'NONE', *, *, #88, .T. ) ;
#6 = UNCERTAINTY_MEASURE_WITH_UNIT (LENGTH_MEASURE( 1.000000000000000082E-05 ), #207, 'distance_accuracy_value', 'NONE');
#7 = ADVANCED_FACE ( 'NONE', ( #103 ), #34, .F. ) ;
#8 = CARTESIAN_POINT ( 'NONE',  ( 25.00000000000000000, 0.0000000000000000000, 0.0000000000000000000 ) ) ;
#9 =( LENGTH_UNIT ( ) NAMED_UNIT ( * ) SI_UNIT ( .MILLI., .METRE. ) );
#10 = DIRECTION ( 'NONE',  ( 1.000000000000000000, 0.0000000000000000000, 0.0000000000000000000 ) ) ;
#11 = CLOSED_SHELL ( 'NONE', ( #204, #75, #133 ) ) ;
#12 =( NAMED_UNIT ( * ) SI_UNIT ( $, .STERADIAN. ) SOLID_ANGLE_UNIT ( ) );
#13 = STYLED_ITEM ( 'NONE', ( #86 ), #89 ) ;
#14 = PRESENTATION_STYLE_ASSIGNMENT (( #186 ) ) ;
#15 = CIRCLE ( 'NONE', #180, 1.000000000000003109 ) ;
#16 = SURFACE_STYLE_USAGE ( .BOTH. , #151 ) ;
#17 = SURFACE_SIDE_STYLE ('',( #127 ) ) ;
#18 = CARTESIAN_POINT ( 'NONE',  ( 25.00000000000000000, 0.0000000000000000000, -1.000000000000003109 ) ) ;
#19 = FILL_AREA_STYLE_COLOUR ( '', #198 ) ;
#20 = MECHANICAL_DESIGN_GEOMETRIC_PRESENTATION_REPRESENTATION (  '', ( #125 ), #199 ) ;
#21 = FILL_AREA_STYLE_COLOUR ( '', #22 ) ;
#22 = COLOUR_RGB ( '',0.7921568627450980005, 0.8196078431372548767, 0.9333333333333333481 ) ;
#23 = SURFACE_STYLE_USAGE ( .BOTH. , #121 ) ;
#24 = DIRECTION ( 'NONE',  ( 0.0000000000000000000, 0.0000000000000000000, -1.000000000000000000 ) ) ;
#25 = FILL_AREA_STYLE_COLOUR ( '', #65 ) ;
#26 = SURFACE_STYLE_FILL_AREA ( #119 ) ;
#27 = SURFACE_SIDE_STYLE ('',( #109 ) ) ;
#28 = DIRECTION ( 'NONE',  ( 0.0000000000000000000, 0.0000000000000000000, -1.000000000000000000 ) ) ;
#29 = AXIS2_PLACEMENT_3D ( 'NONE', #81, #93, #145 ) ;
#30 = PLANE ( 'NONE',  #162 ) ;
#31 = CIRCLE ( 'NONE', #208, 0.7999999999999951594 ) ;
#32 = FACE_BOUND ( 'NONE', #49, .T. ) ;
#33 =( GEOMETRIC_REPRESENTATION_CONTEXT ( 3 ) GLOBAL_UNCERTAINTY_ASSIGNED_CONTEXT ( ( #129 ) ) GLOBAL_UNIT_ASSIGNED_CONTEXT ( ( #64, #134, #12 ) ) REPRESENTATION_CONTEXT ( 'NONE', 'WORKASPACE' ) );
#34 = PLANE ( 'NONE',  #29 ) ;
#35 = CARTESIAN_POINT ( 'NONE',  ( 0.0000000000000000000, 0.0000000000000000000, 0.0000000000000000000 ) ) ;
#36 =( NAMED_UNIT ( * ) SI_UNIT ( $, .STERADIAN. ) SOLID_ANGLE_UNIT ( ) );
#37 = FACE_OUTER_BOUND ( 'NONE', #98, .T. ) ;
#38 = EDGE_LOOP ( 'NONE', ( #5 ) ) ;
#39 = AXIS2_PLACEMENT_3D ( 'NONE', #8, #205, #24 ) ;
#40 = DIRECTION ( 'NONE',  ( 0.0000000000000000000, 0.0000000000000000000, -1.000000000000000000 ) ) ;
#41 = ORIENTED_EDGE ( 'NONE', *, *, #73, .T. ) ;
#42 = PRODUCT_RELATED_PRODUCT_CATEGORY ( 'part', '', ( #45 ) ) ;
#43 = EDGE_CURVE ( 'NONE', #166, #166, #1, .T. ) ;
#44 = EDGE_LOOP ( 'NONE', ( #95 ) ) ;
#45 = PRODUCT ( '03-1626', '03-1626', '', ( #161 ) ) ;
#46 = ORIENTED_EDGE ( 'NONE', *, *, #43, .F. ) ;
#47 =( LENGTH_UNIT ( ) NAMED_UNIT ( * ) SI_UNIT ( .MILLI., .METRE. ) );
#48 = PRESENTATION_STYLE_ASSIGNMENT (( #23 ) ) ;
#49 = EDGE_LOOP ( 'NONE', ( #91 ) ) ;
#50 = DIRECTION ( 'NONE',  ( -1.000000000000000000, -0.0000000000000000000, -0.0000000000000000000 ) ) ;
#51 = CARTESIAN_POINT ( 'NONE',  ( -6.123233995736767268E-17, 0.0000000000000000000, 0.0000000000000000000 ) ) ;
#52 = MECHANICAL_DESIGN_GEOMETRIC_PRESENTATION_REPRESENTATION (  '', ( #13 ), #84 ) ;
#53 =( LENGTH_UNIT ( ) NAMED_UNIT ( * ) SI_UNIT ( .MILLI., .METRE. ) );
#54 = SURFACE_STYLE_FILL_AREA ( #187 ) ;
#55 = CLOSED_SHELL ( 'NONE', ( #152, #7, #160, #58 ) ) ;
#56 = CARTESIAN_POINT ( 'NONE',  ( 25.00000000000000000, 0.0000000000000000000, 0.0000000000000000000 ) ) ;
#57 = DIRECTION ( 'NONE',  ( -1.000000000000000000, -0.0000000000000000000, -0.0000000000000000000 ) ) ;
#58 = ADVANCED_FACE ( 'NONE', ( #167 ), #158, .T. ) ;
#59 = PRODUCT_DEFINITION_FORMATION_WITH_SPECIFIED_SOURCE ( 'ANY', '', #45, .NOT_KNOWN. ) ;
#60 = CARTESIAN_POINT ( 'NONE',  ( 0.2000000000000110856, 0.0000000000000000000, 0.0000000000000000000 ) ) ;
#61 = DIRECTION ( 'NONE',  ( 1.000000000000000000, 0.0000000000000000000, 0.0000000000000000000 ) ) ;
#62 = UNCERTAINTY_MEASURE_WITH_UNIT (LENGTH_MEASURE( 1.000000000000000082E-05 ), #110, 'distance_accuracy_value', 'NONE');
#63 = EDGE_CURVE ( 'NONE', #170, #170, #15, .T. ) ;
#64 =( LENGTH_UNIT ( ) NAMED_UNIT ( * ) SI_UNIT ( .MILLI., .METRE. ) );
#65 = COLOUR_RGB ( '',0.7921568627450980005, 0.8196078431372548767, 0.9333333333333333481 ) ;
#66 = PRESENTATION_LAYER_ASSIGNMENT (  '', '', ( #67 ) ) ;
#67 = STYLED_ITEM ( 'NONE', ( #192 ), #107 ) ;
#68 = CIRCLE ( 'NONE', #157, 1.000000000000003109 ) ;
#69 = PRODUCT_DEFINITION ( 'UNKNOWN', '', #59, #213 ) ;
#70 = COLOUR_RGB ( '',1.000000000000000000, 1.000000000000000000, 0.0000000000000000000 ) ;
#71 = SURFACE_STYLE_USAGE ( .BOTH. , #17 ) ;
#72 = CARTESIAN_POINT ( 'NONE',  ( 25.00000000000000000, 0.0000000000000000000, 0.0000000000000000000 ) ) ;
#73 = EDGE_CURVE ( 'NONE', #194, #194, #31, .T. ) ;
#74 = CONICAL_SURFACE ( 'NONE', #211, 0.7999999999999951594, 0.7853981633974401744 ) ;
#75 = ADVANCED_FACE ( 'NONE', ( #168, #77 ), #190, .T. ) ;
#76 =( NAMED_UNIT ( * ) SI_UNIT ( $, .STERADIAN. ) SOLID_ANGLE_UNIT ( ) );
#77 = FACE_OUTER_BOUND ( 'NONE', #179, .T. ) ;
#78 = CARTESIAN_POINT ( 'NONE',  ( -6.123233995736767268E-17, 0.0000000000000000000, 0.0000000000000000000 ) ) ;
#79 = MECHANICAL_DESIGN_GEOMETRIC_PRESENTATION_REPRESENTATION (  '', ( #67 ), #182 ) ;
#80 = DIRECTION ( 'NONE',  ( -1.000000000000000000, -0.0000000000000000000, -0.0000000000000000000 ) ) ;
#81 = CARTESIAN_POINT ( 'NONE',  ( -6.123233995736767268E-17, 1.000000000000000000, 0.0000000000000000000 ) ) ;
#82 = CYLINDRICAL_SURFACE ( 'NONE', #105, 1.000000000000003109 ) ;
#83 = ORIENTED_EDGE ( 'NONE', *, *, #43, .T. ) ;
#84 =( GEOMETRIC_REPRESENTATION_CONTEXT ( 3 ) GLOBAL_UNCERTAINTY_ASSIGNED_CONTEXT ( ( #146 ) ) GLOBAL_UNIT_ASSIGNED_CONTEXT ( ( #9, #135, #120 ) ) REPRESENTATION_CONTEXT ( 'NONE', 'WORKASPACE' ) );
#85 = DIRECTION ( 'NONE',  ( 0.0000000000000000000, 0.0000000000000000000, 1.000000000000000000 ) ) ;
#86 = PRESENTATION_STYLE_ASSIGNMENT (( #153 ) ) ;
#87 = AXIS2_PLACEMENT_3D ( 'NONE', #35, #203, #196 ) ;
#88 = EDGE_CURVE ( 'NONE', #159, #159, #68, .T. ) ;
#89 = MANIFOLD_SOLID_BREP ( 'ºÐÇÒ2[1]', #55 ) ;
#90 = FACE_OUTER_BOUND ( 'NONE', #173, .T. ) ;
#91 = ORIENTED_EDGE ( 'NONE', *, *, #73, .F. ) ;
#92 =( NAMED_UNIT ( * ) SI_UNIT ( $, .STERADIAN. ) SOLID_ANGLE_UNIT ( ) );
#93 = DIRECTION ( 'NONE',  ( 1.000000000000000000, 0.0000000000000000000, 0.0000000000000000000 ) ) ;
#94 = DIRECTION ( 'NONE',  ( 0.0000000000000000000, 0.0000000000000000000, -1.000000000000000000 ) ) ;
#95 = ORIENTED_EDGE ( 'NONE', *, *, #63, .F. ) ;
#96 = APPLICATION_CONTEXT ( 'automotive_design' ) ;
#97 =( NAMED_UNIT ( * ) PLANE_ANGLE_UNIT ( ) SI_UNIT ( $, .RADIAN. ) );
#98 = EDGE_LOOP ( 'NONE', ( #210 ) ) ;
#99 = CARTESIAN_POINT ( 'NONE',  ( -951.0000000000000000, 0.0000000000000000000, 0.0000000000000000000 ) ) ;
#100 = DIRECTION ( 'NONE',  ( 1.000000000000000000, 0.0000000000000000000, 0.0000000000000000000 ) ) ;
#101 = CARTESIAN_POINT ( 'NONE',  ( -6.123233995736767268E-17, 0.0000000000000000000, -0.7999999999999951594 ) ) ;
#102 = EDGE_CURVE ( 'NONE', #122, #122, #115, .T. ) ;
#103 = FACE_OUTER_BOUND ( 'NONE', #212, .T. ) ;
#104 = PRODUCT_DEFINITION_SHAPE ( 'NONE', 'NONE',  #69 ) ;
#105 = AXIS2_PLACEMENT_3D ( 'NONE', #178, #80, #188 ) ;
#106 = FACE_OUTER_BOUND ( 'NONE', #201, .T. ) ;
#107 = MANIFOLD_SOLID_BREP ( 'ºÐÇÒ2[2]', #11 ) ;
#108 = PRESENTATION_STYLE_ASSIGNMENT (( #71 ) ) ;
#109 = SURFACE_STYLE_FILL_AREA ( #191 ) ;
#110 =( LENGTH_UNIT ( ) NAMED_UNIT ( * ) SI_UNIT ( .MILLI., .METRE. ) );
#111 = DIRECTION ( 'NONE',  ( 0.0000000000000000000, 0.0000000000000000000, 1.000000000000000000 ) ) ;
#112 = CARTESIAN_POINT ( 'NONE',  ( 48.58578643762690064, 0.0000000000000000000, 0.0000000000000000000 ) ) ;
#113 = CARTESIAN_POINT ( 'NONE',  ( 0.0000000000000000000, 0.0000000000000000000, 0.0000000000000000000 ) ) ;
#114 = APPLICATION_PROTOCOL_DEFINITION ( 'draft international standard', 'automotive_design', 1998, #116 ) ;
#115 = CIRCLE ( 'NONE', #39, 1.000000000000003109 ) ;
#116 = APPLICATION_CONTEXT ( 'automotive_design' ) ;
#117 = FILL_AREA_STYLE ('',( #202 ) ) ;
#118 = PRESENTATION_LAYER_ASSIGNMENT (  '', '', ( #125 ) ) ;
#119 = FILL_AREA_STYLE ('',( #25 ) ) ;
#120 =( NAMED_UNIT ( * ) SI_UNIT ( $, .STERADIAN. ) SOLID_ANGLE_UNIT ( ) );
#121 = SURFACE_SIDE_STYLE ('',( #123 ) ) ;
#122 = VERTEX_POINT ( 'NONE', #18 ) ;
#123 = SURFACE_STYLE_FILL_AREA ( #117 ) ;
#124 =( GEOMETRIC_REPRESENTATION_CONTEXT ( 3 ) GLOBAL_UNCERTAINTY_ASSIGNED_CONTEXT ( ( #6 ) ) GLOBAL_UNIT_ASSIGNED_CONTEXT ( ( #207, #206, #132 ) ) REPRESENTATION_CONTEXT ( 'NONE', 'WORKASPACE' ) );
#125 = STYLED_ITEM ( 'NONE', ( #108 ), #75 ) ;
#126 =( NAMED_UNIT ( * ) PLANE_ANGLE_UNIT ( ) SI_UNIT ( $, .RADIAN. ) );
#127 = SURFACE_STYLE_FILL_AREA ( #143 ) ;
#128 = DIRECTION ( 'NONE',  ( 0.0000000000000000000, 0.0000000000000000000, -1.000000000000000000 ) ) ;
#129 = UNCERTAINTY_MEASURE_WITH_UNIT (LENGTH_MEASURE( 1.000000000000000082E-05 ), #64, 'distance_accuracy_value', 'NONE');
#130 = CONICAL_SURFACE ( 'NONE', #169, 2414.213562373062814, 1.178097245096167756 ) ;
#131 = EDGE_LOOP ( 'NONE', ( #181 ) ) ;
#132 =( NAMED_UNIT ( * ) SI_UNIT ( $, .STERADIAN. ) SOLID_ANGLE_UNIT ( ) );
#133 = ADVANCED_FACE ( 'NONE', ( #106 ), #130, .T. ) ;
#134 =( NAMED_UNIT ( * ) PLANE_ANGLE_UNIT ( ) SI_UNIT ( $, .RADIAN. ) );
#135 =( NAMED_UNIT ( * ) PLANE_ANGLE_UNIT ( ) SI_UNIT ( $, .RADIAN. ) );
#136 = MECHANICAL_DESIGN_GEOMETRIC_PRESENTATION_REPRESENTATION (  '', ( #156 ), #124 ) ;
#137 = SURFACE_SIDE_STYLE ('',( #54 ) ) ;
#138 = AXIS2_PLACEMENT_3D ( 'NONE', #171, #2, #128 ) ;
#139 = SHAPE_DEFINITION_REPRESENTATION ( #104, #163 ) ;
#140 = ORIENTED_EDGE ( 'NONE', *, *, #63, .T. ) ;
#141 = ORIENTED_EDGE ( 'NONE', *, *, #102, .F. ) ;
#142 = DIRECTION ( 'NONE',  ( 0.0000000000000000000, 0.0000000000000000000, 1.000000000000000000 ) ) ;
#143 = FILL_AREA_STYLE ('',( #19 ) ) ;
#144 = PRESENTATION_LAYER_ASSIGNMENT (  '', '', ( #156 ) ) ;
#145 = DIRECTION ( 'NONE',  ( 0.0000000000000000000, 0.0000000000000000000, -1.000000000000000000 ) ) ;
#146 = UNCERTAINTY_MEASURE_WITH_UNIT (LENGTH_MEASURE( 1.000000000000000082E-05 ), #9, 'distance_accuracy_value', 'NONE');
#147 = EDGE_LOOP ( 'NONE', ( #140 ) ) ;
#148 = FILL_AREA_STYLE_COLOUR ( '', #200 ) ;
#149 = PRESENTATION_LAYER_ASSIGNMENT (  '', '', ( #195 ) ) ;
#150 = DIRECTION ( 'NONE',  ( 0.0000000000000000000, 0.0000000000000000000, -1.000000000000000000 ) ) ;
#151 = SURFACE_SIDE_STYLE ('',( #26 ) ) ;
#152 = ADVANCED_FACE ( 'NONE', ( #209, #172 ), #82, .T. ) ;
#153 = SURFACE_STYLE_USAGE ( .BOTH. , #27 ) ;
#154 = CARTESIAN_POINT ( 'NONE',  ( 48.58578643762690064, 0.0000000000000000000, 1.000000000000005995 ) ) ;
#155 = CARTESIAN_POINT ( 'NONE',  ( 25.00000000000000000, 0.0000000000000000000, -1.000000000000003109 ) ) ;
#156 = STYLED_ITEM ( 'NONE', ( #14 ), #163 ) ;
#157 = AXIS2_PLACEMENT_3D ( 'NONE', #60, #175, #40 ) ;
#158 = PLANE ( 'NONE',  #138 ) ;
#159 = VERTEX_POINT ( 'NONE', #164 ) ;
#160 = ADVANCED_FACE ( 'NONE', ( #37, #32 ), #74, .T. ) ;
#161 = PRODUCT_CONTEXT ( 'NONE', #96, 'mechanical' ) ;
#162 = AXIS2_PLACEMENT_3D ( 'NONE', #56, #100, #28 ) ;
#163 = ADVANCED_BREP_SHAPE_REPRESENTATION ( '03-1626', ( #89, #107, #87 ), #33 ) ;
#164 = CARTESIAN_POINT ( 'NONE',  ( 0.2000000000000110856, 0.0000000000000000000, -1.000000000000003109 ) ) ;
#165 = PRESENTATION_LAYER_ASSIGNMENT (  '', '', ( #13 ) ) ;
#166 = VERTEX_POINT ( 'NONE', #154 ) ;
#167 = FACE_OUTER_BOUND ( 'NONE', #147, .T. ) ;
#168 = FACE_OUTER_BOUND ( 'NONE', #131, .T. ) ;
#169 = AXIS2_PLACEMENT_3D ( 'NONE', #99, #50, #85 ) ;
#170 = VERTEX_POINT ( 'NONE', #155 ) ;
#171 = CARTESIAN_POINT ( 'NONE',  ( 25.00000000000000000, 0.0000000000000000000, 0.0000000000000000000 ) ) ;
#172 = FACE_OUTER_BOUND ( 'NONE', #44, .T. ) ;
#173 = EDGE_LOOP ( 'NONE', ( #141 ) ) ;
#174 = DIRECTION ( 'NONE',  ( 0.0000000000000000000, 0.0000000000000000000, -1.000000000000000000 ) ) ;
#175 = DIRECTION ( 'NONE',  ( 1.000000000000000000, 0.0000000000000000000, 0.0000000000000000000 ) ) ;
#176 =( GEOMETRIC_REPRESENTATION_CONTEXT ( 3 ) GLOBAL_UNCERTAINTY_ASSIGNED_CONTEXT ( ( #193 ) ) GLOBAL_UNIT_ASSIGNED_CONTEXT ( ( #53, #97, #76 ) ) REPRESENTATION_CONTEXT ( 'NONE', 'WORKASPACE' ) );
#177 = UNCERTAINTY_MEASURE_WITH_UNIT (LENGTH_MEASURE( 1.000000000000000082E-05 ), #47, 'distance_accuracy_value', 'NONE');
#178 = CARTESIAN_POINT ( 'NONE',  ( 0.0000000000000000000, 0.0000000000000000000, 0.0000000000000000000 ) ) ;
#179 = EDGE_LOOP ( 'NONE', ( #83 ) ) ;
#180 = AXIS2_PLACEMENT_3D ( 'NONE', #72, #61, #174 ) ;
#181 = ORIENTED_EDGE ( 'NONE', *, *, #102, .T. ) ;
#182 =( GEOMETRIC_REPRESENTATION_CONTEXT ( 3 ) GLOBAL_UNCERTAINTY_ASSIGNED_CONTEXT ( ( #62 ) ) GLOBAL_UNIT_ASSIGNED_CONTEXT ( ( #110, #4, #36 ) ) REPRESENTATION_CONTEXT ( 'NONE', 'WORKASPACE' ) );
#183 = MECHANICAL_DESIGN_GEOMETRIC_PRESENTATION_REPRESENTATION (  '', ( #195 ), #176 ) ;
#184 = DIRECTION ( 'NONE',  ( -1.000000000000000000, -0.0000000000000000000, -0.0000000000000000000 ) ) ;
#185 = APPLICATION_PROTOCOL_DEFINITION ( 'draft international standard', 'automotive_design', 1998, #96 ) ;
#186 = SURFACE_STYLE_USAGE ( .BOTH. , #137 ) ;
#187 = FILL_AREA_STYLE ('',( #148 ) ) ;
#188 = DIRECTION ( 'NONE',  ( 0.0000000000000000000, 0.0000000000000000000, 1.000000000000000000 ) ) ;
#189 = AXIS2_PLACEMENT_3D ( 'NONE', #113, #57, #142 ) ;
#190 = CYLINDRICAL_SURFACE ( 'NONE', #189, 1.000000000000003109 ) ;
#191 = FILL_AREA_STYLE ('',( #21 ) ) ;
#192 = PRESENTATION_STYLE_ASSIGNMENT (( #16 ) ) ;
#193 = UNCERTAINTY_MEASURE_WITH_UNIT (LENGTH_MEASURE( 1.000000000000000082E-05 ), #53, 'distance_accuracy_value', 'NONE');
#194 = VERTEX_POINT ( 'NONE', #101 ) ;
#195 = STYLED_ITEM ( 'NONE', ( #48 ), #133 ) ;
#196 = DIRECTION ( 'NONE',  ( 1.000000000000000000, 0.0000000000000000000, 0.0000000000000000000 ) ) ;
#197 = DIRECTION ( 'NONE',  ( -1.000000000000000000, -0.0000000000000000000, -0.0000000000000000000 ) ) ;
#198 = COLOUR_RGB ( '',1.000000000000000000, 1.000000000000000000, 0.0000000000000000000 ) ;
#199 =( GEOMETRIC_REPRESENTATION_CONTEXT ( 3 ) GLOBAL_UNCERTAINTY_ASSIGNED_CONTEXT ( ( #177 ) ) GLOBAL_UNIT_ASSIGNED_CONTEXT ( ( #47, #126, #92 ) ) REPRESENTATION_CONTEXT ( 'NONE', 'WORKASPACE' ) );
#200 = COLOUR_RGB ( '',0.7921568627450980005, 0.8196078431372548767, 0.9333333333333333481 ) ;
#201 = EDGE_LOOP ( 'NONE', ( #46 ) ) ;
#202 = FILL_AREA_STYLE_COLOUR ( '', #70 ) ;
#203 = DIRECTION ( 'NONE',  ( 0.0000000000000000000, 0.0000000000000000000, 1.000000000000000000 ) ) ;
#204 = ADVANCED_FACE ( 'NONE', ( #90 ), #30, .F. ) ;
#205 = DIRECTION ( 'NONE',  ( 1.000000000000000000, 0.0000000000000000000, 0.0000000000000000000 ) ) ;
#206 =( NAMED_UNIT ( * ) PLANE_ANGLE_UNIT ( ) SI_UNIT ( $, .RADIAN. ) );
#207 =( LENGTH_UNIT ( ) NAMED_UNIT ( * ) SI_UNIT ( .MILLI., .METRE. ) );
#208 = AXIS2_PLACEMENT_3D ( 'NONE', #78, #184, #94 ) ;
#209 = FACE_OUTER_BOUND ( 'NONE', #38, .T. ) ;
#210 = ORIENTED_EDGE ( 'NONE', *, *, #88, .F. ) ;
#211 = AXIS2_PLACEMENT_3D ( 'NONE', #51, #10, #150 ) ;
#212 = EDGE_LOOP ( 'NONE', ( #41 ) ) ;
#213 = PRODUCT_DEFINITION_CONTEXT ( 'detailed design', #116, 'design' ) ;
ENDSEC;
END-ISO-10303-21;
