ISO-10303-21;
HEADER;
FILE_DESCRIPTION (( 'STEP AP214' ),
    '1' );
FILE_NAME ('03-1628.STEP',
    '2021-10-01T05:03:03',
    ( 'USER' ),
    ( '' ),
    'SwSTEP 2.0',
    'SolidWorks 2018',
    '' );
FILE_SCHEMA (( 'AUTOMOTIVE_DESIGN' ));
ENDSEC;

DATA;
#1 =( GEOMETRIC_REPRESENTATION_CONTEXT ( 3 ) GLOBAL_UNCERTAINTY_ASSIGNED_CONTEXT ( ( #63 ) ) GLOBAL_UNIT_ASSIGNED_CONTEXT ( ( #157, #67, #12 ) ) REPRESENTATION_CONTEXT ( 'NONE', 'WORKASPACE' ) );
#2 = MANIFOLD_SOLID_BREP ( 'ºÐÇÒ2[1]', #126 ) ;
#3 = EDGE_LOOP ( 'NONE', ( #101 ) ) ;
#4 =( LENGTH_UNIT ( ) NAMED_UNIT ( * ) SI_UNIT ( .MILLI., .METRE. ) );
#5 = AXIS2_PLACEMENT_3D ( 'NONE', #6, #29, #31 ) ;
#6 = CARTESIAN_POINT ( 'NONE',  ( -6.735557395310442516E-17, 1.100000000000000311, 0.0000000000000000000 ) ) ;
#7 = DIRECTION ( 'NONE',  ( 0.0000000000000000000, 0.0000000000000000000, -1.000000000000000000 ) ) ;
#8 = FACE_OUTER_BOUND ( 'NONE', #189, .T. ) ;
#9 = CARTESIAN_POINT ( 'NONE',  ( 26.00000000000000000, 0.0000000000000000000, 0.0000000000000000000 ) ) ;
#10 = DIRECTION ( 'NONE',  ( 0.0000000000000000000, 0.0000000000000000000, 1.000000000000000000 ) ) ;
#11 = EDGE_CURVE ( 'NONE', #89, #89, #149, .T. ) ;
#12 =( NAMED_UNIT ( * ) SI_UNIT ( $, .STERADIAN. ) SOLID_ANGLE_UNIT ( ) );
#13 = FILL_AREA_STYLE ('',( #75 ) ) ;
#14 = VERTEX_POINT ( 'NONE', #117 ) ;
#15 = EDGE_LOOP ( 'NONE', ( #166 ) ) ;
#16 = ADVANCED_FACE ( 'NONE', ( #104, #45 ), #169, .T. ) ;
#17 = EDGE_LOOP ( 'NONE', ( #98 ) ) ;
#18 = DIRECTION ( 'NONE',  ( 1.000000000000000000, 0.0000000000000000000, 0.0000000000000000000 ) ) ;
#19 = STYLED_ITEM ( 'NONE', ( #52 ), #97 ) ;
#20 = UNCERTAINTY_MEASURE_WITH_UNIT (LENGTH_MEASURE( 1.000000000000000082E-05 ), #119, 'distance_accuracy_value', 'NONE');
#21 = FACE_OUTER_BOUND ( 'NONE', #41, .T. ) ;
#22 = CARTESIAN_POINT ( 'NONE',  ( 0.0000000000000000000, 0.0000000000000000000, 0.0000000000000000000 ) ) ;
#23 = STYLED_ITEM ( 'NONE', ( #175 ), #2 ) ;
#24 = AXIS2_PLACEMENT_3D ( 'NONE', #9, #47, #177 ) ;
#25 = PLANE ( 'NONE',  #5 ) ;
#26 = CARTESIAN_POINT ( 'NONE',  ( -6.735557395310442516E-17, 0.0000000000000000000, 0.0000000000000000000 ) ) ;
#27 = DIRECTION ( 'NONE',  ( -1.000000000000000000, -0.0000000000000000000, -0.0000000000000000000 ) ) ;
#28 = DIRECTION ( 'NONE',  ( 0.0000000000000000000, 0.0000000000000000000, -1.000000000000000000 ) ) ;
#29 = DIRECTION ( 'NONE',  ( 1.000000000000000000, 0.0000000000000000000, 0.0000000000000000000 ) ) ;
#30 = DIRECTION ( 'NONE',  ( 1.000000000000000000, 0.0000000000000000000, 0.0000000000000000000 ) ) ;
#31 = DIRECTION ( 'NONE',  ( 0.0000000000000000000, 0.0000000000000000000, -1.000000000000000000 ) ) ;
#32 = SURFACE_STYLE_USAGE ( .BOTH. , #193 ) ;
#33 = DIRECTION ( 'NONE',  ( 0.0000000000000000000, 0.0000000000000000000, 1.000000000000000000 ) ) ;
#34 = SURFACE_STYLE_USAGE ( .BOTH. , #123 ) ;
#35 = COLOUR_RGB ( '',1.000000000000000000, 1.000000000000000000, 0.0000000000000000000 ) ;
#36 = SURFACE_STYLE_FILL_AREA ( #13 ) ;
#37 = EDGE_CURVE ( 'NONE', #14, #14, #81, .T. ) ;
#38 = AXIS2_PLACEMENT_3D ( 'NONE', #106, #105, #7 ) ;
#39 = FILL_AREA_STYLE ('',( #64 ) ) ;
#40 = DIRECTION ( 'NONE',  ( 0.0000000000000000000, 0.0000000000000000000, 1.000000000000000000 ) ) ;
#41 = EDGE_LOOP ( 'NONE', ( #139 ) ) ;
#42 = DIRECTION ( 'NONE',  ( 1.000000000000000000, 0.0000000000000000000, 0.0000000000000000000 ) ) ;
#43 = UNCERTAINTY_MEASURE_WITH_UNIT (LENGTH_MEASURE( 1.000000000000000082E-05 ), #4, 'distance_accuracy_value', 'NONE');
#44 = DIRECTION ( 'NONE',  ( 0.0000000000000000000, 0.0000000000000000000, -1.000000000000000000 ) ) ;
#45 = FACE_BOUND ( 'NONE', #15, .T. ) ;
#46 = CARTESIAN_POINT ( 'NONE',  ( 26.00000000000000000, 0.0000000000000000000, 0.0000000000000000000 ) ) ;
#47 = DIRECTION ( 'NONE',  ( 1.000000000000000000, 0.0000000000000000000, 0.0000000000000000000 ) ) ;
#48 = SURFACE_STYLE_USAGE ( .BOTH. , #181 ) ;
#49 = FILL_AREA_STYLE ('',( #109 ) ) ;
#50 =( NAMED_UNIT ( * ) SI_UNIT ( $, .STERADIAN. ) SOLID_ANGLE_UNIT ( ) );
#51 =( NAMED_UNIT ( * ) PLANE_ANGLE_UNIT ( ) SI_UNIT ( $, .RADIAN. ) );
#52 = PRESENTATION_STYLE_ASSIGNMENT (( #48 ) ) ;
#53 = DIRECTION ( 'NONE',  ( -1.000000000000000000, -0.0000000000000000000, -0.0000000000000000000 ) ) ;
#54 = CIRCLE ( 'NONE', #38, 1.100000000000003419 ) ;
#55 = ORIENTED_EDGE ( 'NONE', *, *, #159, .F. ) ;
#56 = CARTESIAN_POINT ( 'NONE',  ( -947.0000000000000000, 0.0000000000000000000, 0.0000000000000000000 ) ) ;
#57 = EDGE_LOOP ( 'NONE', ( #152 ) ) ;
#58 = AXIS2_PLACEMENT_3D ( 'NONE', #208, #120, #172 ) ;
#59 =( NAMED_UNIT ( * ) SI_UNIT ( $, .STERADIAN. ) SOLID_ANGLE_UNIT ( ) );
#60 = FACE_OUTER_BOUND ( 'NONE', #160, .T. ) ;
#61 =( NAMED_UNIT ( * ) PLANE_ANGLE_UNIT ( ) SI_UNIT ( $, .RADIAN. ) );
#62 = DIRECTION ( 'NONE',  ( 0.0000000000000000000, 0.0000000000000000000, -1.000000000000000000 ) ) ;
#63 = UNCERTAINTY_MEASURE_WITH_UNIT (LENGTH_MEASURE( 1.000000000000000082E-05 ), #157, 'distance_accuracy_value', 'NONE');
#64 = FILL_AREA_STYLE_COLOUR ( '', #147 ) ;
#65 =( NAMED_UNIT ( * ) PLANE_ANGLE_UNIT ( ) SI_UNIT ( $, .RADIAN. ) );
#66 = COLOUR_RGB ( '',0.7921568627450980005, 0.8196078431372548767, 0.9333333333333333481 ) ;
#67 =( NAMED_UNIT ( * ) PLANE_ANGLE_UNIT ( ) SI_UNIT ( $, .RADIAN. ) );
#68 = ADVANCED_FACE ( 'NONE', ( #21 ), #25, .F. ) ;
#69 = ORIENTED_EDGE ( 'NONE', *, *, #159, .T. ) ;
#70 = AXIS2_PLACEMENT_3D ( 'NONE', #207, #108, #10 ) ;
#71 = FACE_OUTER_BOUND ( 'NONE', #17, .T. ) ;
#72 =( NAMED_UNIT ( * ) PLANE_ANGLE_UNIT ( ) SI_UNIT ( $, .RADIAN. ) );
#73 = CYLINDRICAL_SURFACE ( 'NONE', #212, 1.100000000000003419 ) ;
#74 = FILL_AREA_STYLE_COLOUR ( '', #127 ) ;
#75 = FILL_AREA_STYLE_COLOUR ( '', #130 ) ;
#76 =( NAMED_UNIT ( * ) SI_UNIT ( $, .STERADIAN. ) SOLID_ANGLE_UNIT ( ) );
#77 = AXIS2_PLACEMENT_3D ( 'NONE', #137, #30, #158 ) ;
#78 = DIRECTION ( 'NONE',  ( 1.000000000000000000, 0.0000000000000000000, 0.0000000000000000000 ) ) ;
#79 = ADVANCED_FACE ( 'NONE', ( #206, #100 ), #73, .T. ) ;
#80 = PRODUCT_DEFINITION_SHAPE ( 'NONE', 'NONE',  #103 ) ;
#81 = CIRCLE ( 'NONE', #151, 0.8799999999999918998 ) ;
#82 = PRODUCT_RELATED_PRODUCT_CATEGORY ( 'part', '', ( #83 ) ) ;
#83 = PRODUCT ( '03-1628', '03-1628', '', ( #195 ) ) ;
#84 = CONICAL_SURFACE ( 'NONE', #183, 2414.213562373062814, 1.178097245096167756 ) ;
#85 = VERTEX_POINT ( 'NONE', #110 ) ;
#86 = FILL_AREA_STYLE ('',( #199 ) ) ;
#87 =( GEOMETRIC_REPRESENTATION_CONTEXT ( 3 ) GLOBAL_UNCERTAINTY_ASSIGNED_CONTEXT ( ( #95 ) ) GLOBAL_UNIT_ASSIGNED_CONTEXT ( ( #204, #72, #191 ) ) REPRESENTATION_CONTEXT ( 'NONE', 'WORKASPACE' ) );
#88 = SURFACE_STYLE_USAGE ( .BOTH. , #162 ) ;
#89 = VERTEX_POINT ( 'NONE', #136 ) ;
#90 = FACE_OUTER_BOUND ( 'NONE', #102, .T. ) ;
#91 = FILL_AREA_STYLE ('',( #74 ) ) ;
#92 = PRODUCT_DEFINITION_FORMATION_WITH_SPECIFIED_SOURCE ( 'ANY', '', #83, .NOT_KNOWN. ) ;
#93 = CARTESIAN_POINT ( 'NONE',  ( 0.0000000000000000000, 0.0000000000000000000, 0.0000000000000000000 ) ) ;
#94 = APPLICATION_CONTEXT ( 'automotive_design' ) ;
#95 = UNCERTAINTY_MEASURE_WITH_UNIT (LENGTH_MEASURE( 1.000000000000000082E-05 ), #204, 'distance_accuracy_value', 'NONE');
#96 = CYLINDRICAL_SURFACE ( 'NONE', #58, 1.100000000000003419 ) ;
#97 = ADVANCED_FACE ( 'NONE', ( #90 ), #84, .T. ) ;
#98 = ORIENTED_EDGE ( 'NONE', *, *, #145, .T. ) ;
#99 = MECHANICAL_DESIGN_GEOMETRIC_PRESENTATION_REPRESENTATION (  '', ( #115 ), #87 ) ;
#100 = FACE_OUTER_BOUND ( 'NONE', #57, .T. ) ;
#101 = ORIENTED_EDGE ( 'NONE', *, *, #185, .T. ) ;
#102 = EDGE_LOOP ( 'NONE', ( #131 ) ) ;
#103 = PRODUCT_DEFINITION ( 'UNKNOWN', '', #92, #200 ) ;
#104 = FACE_OUTER_BOUND ( 'NONE', #133, .T. ) ;
#105 = DIRECTION ( 'NONE',  ( 1.000000000000000000, 0.0000000000000000000, 0.0000000000000000000 ) ) ;
#106 = CARTESIAN_POINT ( 'NONE',  ( 26.00000000000000000, 0.0000000000000000000, 0.0000000000000000000 ) ) ;
#107 = CARTESIAN_POINT ( 'NONE',  ( -6.735557395310442516E-17, 0.0000000000000000000, 0.0000000000000000000 ) ) ;
#108 = DIRECTION ( 'NONE',  ( -1.000000000000000000, -0.0000000000000000000, -0.0000000000000000000 ) ) ;
#109 = FILL_AREA_STYLE_COLOUR ( '', #35 ) ;
#110 = CARTESIAN_POINT ( 'NONE',  ( 26.00000000000000000, 0.0000000000000000000, -1.100000000000003419 ) ) ;
#111 = PRESENTATION_LAYER_ASSIGNMENT (  '', '', ( #115 ) ) ;
#112 = AXIS2_PLACEMENT_3D ( 'NONE', #93, #182, #78 ) ;
#113 = FACE_OUTER_BOUND ( 'NONE', #3, .T. ) ;
#114 = SURFACE_STYLE_FILL_AREA ( #39 ) ;
#115 = STYLED_ITEM ( 'NONE', ( #154 ), #144 ) ;
#116 = DIRECTION ( 'NONE',  ( 1.000000000000000000, 0.0000000000000000000, 0.0000000000000000000 ) ) ;
#117 = CARTESIAN_POINT ( 'NONE',  ( -6.735557395310442516E-17, 0.0000000000000000000, -0.8799999999999918998 ) ) ;
#118 = DIRECTION ( 'NONE',  ( 0.0000000000000000000, 0.0000000000000000000, -1.000000000000000000 ) ) ;
#119 =( LENGTH_UNIT ( ) NAMED_UNIT ( * ) SI_UNIT ( .MILLI., .METRE. ) );
#120 = DIRECTION ( 'NONE',  ( -1.000000000000000000, -0.0000000000000000000, -0.0000000000000000000 ) ) ;
#121 = ORIENTED_EDGE ( 'NONE', *, *, #11, .T. ) ;
#122 = SURFACE_STYLE_FILL_AREA ( #91 ) ;
#123 = SURFACE_SIDE_STYLE ('',( #36 ) ) ;
#124 = VERTEX_POINT ( 'NONE', #205 ) ;
#125 = MECHANICAL_DESIGN_GEOMETRIC_PRESENTATION_REPRESENTATION (  '', ( #23 ), #138 ) ;
#126 = CLOSED_SHELL ( 'NONE', ( #79, #68, #16, #165 ) ) ;
#127 = COLOUR_RGB ( '',0.7921568627450980005, 0.8196078431372548767, 0.9333333333333333481 ) ;
#128 =( GEOMETRIC_REPRESENTATION_CONTEXT ( 3 ) GLOBAL_UNCERTAINTY_ASSIGNED_CONTEXT ( ( #20 ) ) GLOBAL_UNIT_ASSIGNED_CONTEXT ( ( #119, #140, #50 ) ) REPRESENTATION_CONTEXT ( 'NONE', 'WORKASPACE' ) );
#129 = MANIFOLD_SOLID_BREP ( 'ºÐÇÒ2[2]', #146 ) ;
#130 = COLOUR_RGB ( '',0.7921568627450980005, 0.8196078431372548767, 0.9333333333333333481 ) ;
#131 = ORIENTED_EDGE ( 'NONE', *, *, #145, .F. ) ;
#132 = PRESENTATION_LAYER_ASSIGNMENT (  '', '', ( #19 ) ) ;
#133 = EDGE_LOOP ( 'NONE', ( #55 ) ) ;
#134 = CIRCLE ( 'NONE', #70, 1.100000000000006528 ) ;
#135 = SURFACE_STYLE_FILL_AREA ( #86 ) ;
#136 = CARTESIAN_POINT ( 'NONE',  ( 26.00000000000000000, 0.0000000000000000000, -1.100000000000003419 ) ) ;
#137 = CARTESIAN_POINT ( 'NONE',  ( 0.2200000000000161549, 0.0000000000000000000, 0.0000000000000000000 ) ) ;
#138 =( GEOMETRIC_REPRESENTATION_CONTEXT ( 3 ) GLOBAL_UNCERTAINTY_ASSIGNED_CONTEXT ( ( #43 ) ) GLOBAL_UNIT_ASSIGNED_CONTEXT ( ( #4, #61, #59 ) ) REPRESENTATION_CONTEXT ( 'NONE', 'WORKASPACE' ) );
#139 = ORIENTED_EDGE ( 'NONE', *, *, #37, .T. ) ;
#140 =( NAMED_UNIT ( * ) PLANE_ANGLE_UNIT ( ) SI_UNIT ( $, .RADIAN. ) );
#141 = ORIENTED_EDGE ( 'NONE', *, *, #185, .F. ) ;
#142 =( LENGTH_UNIT ( ) NAMED_UNIT ( * ) SI_UNIT ( .MILLI., .METRE. ) );
#143 = MECHANICAL_DESIGN_GEOMETRIC_PRESENTATION_REPRESENTATION (  '', ( #168 ), #128 ) ;
#144 = ADVANCED_FACE ( 'NONE', ( #113, #71 ), #96, .T. ) ;
#145 = EDGE_CURVE ( 'NONE', #174, #174, #134, .T. ) ;
#146 = CLOSED_SHELL ( 'NONE', ( #213, #144, #97 ) ) ;
#147 = COLOUR_RGB ( '',1.000000000000000000, 1.000000000000000000, 0.0000000000000000000 ) ;
#148 =( GEOMETRIC_REPRESENTATION_CONTEXT ( 3 ) GLOBAL_UNCERTAINTY_ASSIGNED_CONTEXT ( ( #176 ) ) GLOBAL_UNIT_ASSIGNED_CONTEXT ( ( #142, #51, #164 ) ) REPRESENTATION_CONTEXT ( 'NONE', 'WORKASPACE' ) );
#149 = CIRCLE ( 'NONE', #202, 1.100000000000003419 ) ;
#150 = SURFACE_STYLE_USAGE ( .BOTH. , #179 ) ;
#151 = AXIS2_PLACEMENT_3D ( 'NONE', #26, #27, #28 ) ;
#152 = ORIENTED_EDGE ( 'NONE', *, *, #11, .F. ) ;
#153 = PRESENTATION_LAYER_ASSIGNMENT (  '', '', ( #168 ) ) ;
#154 = PRESENTATION_STYLE_ASSIGNMENT (( #88 ) ) ;
#155 = UNCERTAINTY_MEASURE_WITH_UNIT (LENGTH_MEASURE( 1.000000000000000082E-05 ), #180, 'distance_accuracy_value', 'NONE');
#156 = PLANE ( 'NONE',  #24 ) ;
#157 =( LENGTH_UNIT ( ) NAMED_UNIT ( * ) SI_UNIT ( .MILLI., .METRE. ) );
#158 = DIRECTION ( 'NONE',  ( 0.0000000000000000000, 0.0000000000000000000, -1.000000000000000000 ) ) ;
#159 = EDGE_CURVE ( 'NONE', #124, #124, #187, .T. ) ;
#160 = EDGE_LOOP ( 'NONE', ( #121 ) ) ;
#161 = DIRECTION ( 'NONE',  ( -1.000000000000000000, -0.0000000000000000000, -0.0000000000000000000 ) ) ;
#162 = SURFACE_SIDE_STYLE ('',( #197 ) ) ;
#163 = MECHANICAL_DESIGN_GEOMETRIC_PRESENTATION_REPRESENTATION (  '', ( #186 ), #148 ) ;
#164 =( NAMED_UNIT ( * ) SI_UNIT ( $, .STERADIAN. ) SOLID_ANGLE_UNIT ( ) );
#165 = ADVANCED_FACE ( 'NONE', ( #60 ), #156, .T. ) ;
#166 = ORIENTED_EDGE ( 'NONE', *, *, #37, .F. ) ;
#167 = AXIS2_PLACEMENT_3D ( 'NONE', #107, #42, #118 ) ;
#168 = STYLED_ITEM ( 'NONE', ( #171 ), #129 ) ;
#169 = CONICAL_SURFACE ( 'NONE', #167, 0.8799999999999918998, 0.7853981633974375098 ) ;
#170 = PRESENTATION_LAYER_ASSIGNMENT (  '', '', ( #186 ) ) ;
#171 = PRESENTATION_STYLE_ASSIGNMENT (( #32 ) ) ;
#172 = DIRECTION ( 'NONE',  ( 0.0000000000000000000, 0.0000000000000000000, 1.000000000000000000 ) ) ;
#173 = PLANE ( 'NONE',  #203 ) ;
#174 = VERTEX_POINT ( 'NONE', #210 ) ;
#175 = PRESENTATION_STYLE_ASSIGNMENT (( #150 ) ) ;
#176 = UNCERTAINTY_MEASURE_WITH_UNIT (LENGTH_MEASURE( 1.000000000000000082E-05 ), #142, 'distance_accuracy_value', 'NONE');
#177 = DIRECTION ( 'NONE',  ( 0.0000000000000000000, 0.0000000000000000000, -1.000000000000000000 ) ) ;
#178 = PRESENTATION_LAYER_ASSIGNMENT (  '', '', ( #23 ) ) ;
#179 = SURFACE_SIDE_STYLE ('',( #135 ) ) ;
#180 =( LENGTH_UNIT ( ) NAMED_UNIT ( * ) SI_UNIT ( .MILLI., .METRE. ) );
#181 = SURFACE_SIDE_STYLE ('',( #114 ) ) ;
#182 = DIRECTION ( 'NONE',  ( 0.0000000000000000000, 0.0000000000000000000, 1.000000000000000000 ) ) ;
#183 = AXIS2_PLACEMENT_3D ( 'NONE', #56, #161, #33 ) ;
#184 = SHAPE_DEFINITION_REPRESENTATION ( #80, #196 ) ;
#185 = EDGE_CURVE ( 'NONE', #85, #85, #54, .T. ) ;
#186 = STYLED_ITEM ( 'NONE', ( #201 ), #196 ) ;
#187 = CIRCLE ( 'NONE', #77, 1.100000000000003419 ) ;
#188 = EDGE_LOOP ( 'NONE', ( #69 ) ) ;
#189 = EDGE_LOOP ( 'NONE', ( #141 ) ) ;
#190 =( GEOMETRIC_REPRESENTATION_CONTEXT ( 3 ) GLOBAL_UNCERTAINTY_ASSIGNED_CONTEXT ( ( #155 ) ) GLOBAL_UNIT_ASSIGNED_CONTEXT ( ( #180, #65, #76 ) ) REPRESENTATION_CONTEXT ( 'NONE', 'WORKASPACE' ) );
#191 =( NAMED_UNIT ( * ) SI_UNIT ( $, .STERADIAN. ) SOLID_ANGLE_UNIT ( ) );
#192 = CARTESIAN_POINT ( 'NONE',  ( 26.00000000000000000, 0.0000000000000000000, 0.0000000000000000000 ) ) ;
#193 = SURFACE_SIDE_STYLE ('',( #122 ) ) ;
#194 = APPLICATION_PROTOCOL_DEFINITION ( 'draft international standard', 'automotive_design', 1998, #209 ) ;
#195 = PRODUCT_CONTEXT ( 'NONE', #209, 'mechanical' ) ;
#196 = ADVANCED_BREP_SHAPE_REPRESENTATION ( '03-1628', ( #2, #129, #112 ), #1 ) ;
#197 = SURFACE_STYLE_FILL_AREA ( #49 ) ;
#198 = MECHANICAL_DESIGN_GEOMETRIC_PRESENTATION_REPRESENTATION (  '', ( #19 ), #190 ) ;
#199 = FILL_AREA_STYLE_COLOUR ( '', #66 ) ;
#200 = PRODUCT_DEFINITION_CONTEXT ( 'detailed design', #94, 'design' ) ;
#201 = PRESENTATION_STYLE_ASSIGNMENT (( #34 ) ) ;
#202 = AXIS2_PLACEMENT_3D ( 'NONE', #46, #18, #62 ) ;
#203 = AXIS2_PLACEMENT_3D ( 'NONE', #192, #116, #44 ) ;
#204 =( LENGTH_UNIT ( ) NAMED_UNIT ( * ) SI_UNIT ( .MILLI., .METRE. ) );
#205 = CARTESIAN_POINT ( 'NONE',  ( 0.2200000000000161549, 0.0000000000000000000, -1.100000000000003419 ) ) ;
#206 = FACE_OUTER_BOUND ( 'NONE', #188, .T. ) ;
#207 = CARTESIAN_POINT ( 'NONE',  ( 52.54436508138958573, 0.0000000000000000000, 0.0000000000000000000 ) ) ;
#208 = CARTESIAN_POINT ( 'NONE',  ( 0.0000000000000000000, 0.0000000000000000000, 0.0000000000000000000 ) ) ;
#209 = APPLICATION_CONTEXT ( 'automotive_design' ) ;
#210 = CARTESIAN_POINT ( 'NONE',  ( 52.54436508138958573, 0.0000000000000000000, 1.100000000000006528 ) ) ;
#211 = APPLICATION_PROTOCOL_DEFINITION ( 'draft international standard', 'automotive_design', 1998, #94 ) ;
#212 = AXIS2_PLACEMENT_3D ( 'NONE', #22, #53, #40 ) ;
#213 = ADVANCED_FACE ( 'NONE', ( #8 ), #173, .F. ) ;
ENDSEC;
END-ISO-10303-21;
