ISO-10303-21;
HEADER;
FILE_DESCRIPTION (( 'STEP AP214' ),
    '1' );
FILE_NAME ('03-1629.STEP',
    '2021-10-01T05:03:17',
    ( 'USER' ),
    ( '' ),
    'SwSTEP 2.0',
    'SolidWorks 2018',
    '' );
FILE_SCHEMA (( 'AUTOMOTIVE_DESIGN' ));
ENDSEC;

DATA;
#1 = CARTESIAN_POINT ( 'NONE',  ( -7.041719095097278907E-17, 0.0000000000000000000, 0.0000000000000000000 ) ) ;
#2 = ORIENTED_EDGE ( 'NONE', *, *, #200, .F. ) ;
#3 = STYLED_ITEM ( 'NONE', ( #38 ), #104 ) ;
#4 =( GEOMETRIC_REPRESENTATION_CONTEXT ( 3 ) GLOBAL_UNCERTAINTY_ASSIGNED_CONTEXT ( ( #193 ) ) GLOBAL_UNIT_ASSIGNED_CONTEXT ( ( #5, #134, #204 ) ) REPRESENTATION_CONTEXT ( 'NONE', 'WORKASPACE' ) );
#5 =( LENGTH_UNIT ( ) NAMED_UNIT ( * ) SI_UNIT ( .MILLI., .METRE. ) );
#6 = CYLINDRICAL_SURFACE ( 'NONE', #26, 1.150000000000003020 ) ;
#7 = CARTESIAN_POINT ( 'NONE',  ( 26.00000000000000000, 0.0000000000000000000, 0.0000000000000000000 ) ) ;
#8 = CARTESIAN_POINT ( 'NONE',  ( 26.00000000000000000, 0.0000000000000000000, 0.0000000000000000000 ) ) ;
#9 = FACE_OUTER_BOUND ( 'NONE', #45, .T. ) ;
#10 = STYLED_ITEM ( 'NONE', ( #66 ), #127 ) ;
#11 = ADVANCED_FACE ( 'NONE', ( #188, #17 ), #6, .T. ) ;
#12 = DIRECTION ( 'NONE',  ( 1.000000000000000000, 0.0000000000000000000, 0.0000000000000000000 ) ) ;
#13 = CIRCLE ( 'NONE', #115, 1.150000000000003020 ) ;
#14 = STYLED_ITEM ( 'NONE', ( #28 ), #86 ) ;
#15 = UNCERTAINTY_MEASURE_WITH_UNIT (LENGTH_MEASURE( 1.000000000000000082E-05 ), #132, 'distance_accuracy_value', 'NONE');
#16 = CYLINDRICAL_SURFACE ( 'NONE', #141, 1.150000000000003020 ) ;
#17 = FACE_OUTER_BOUND ( 'NONE', #198, .T. ) ;
#18 = SURFACE_STYLE_FILL_AREA ( #95 ) ;
#19 = FACE_OUTER_BOUND ( 'NONE', #21, .T. ) ;
#20 = DIRECTION ( 'NONE',  ( 0.0000000000000000000, 0.0000000000000000000, -1.000000000000000000 ) ) ;
#21 = EDGE_LOOP ( 'NONE', ( #37 ) ) ;
#22 = SURFACE_STYLE_USAGE ( .BOTH. , #109 ) ;
#23 = PRESENTATION_LAYER_ASSIGNMENT (  '', '', ( #10 ) ) ;
#24 =( NAMED_UNIT ( * ) PLANE_ANGLE_UNIT ( ) SI_UNIT ( $, .RADIAN. ) );
#25 = CARTESIAN_POINT ( 'NONE',  ( 0.0000000000000000000, 0.0000000000000000000, 0.0000000000000000000 ) ) ;
#26 = AXIS2_PLACEMENT_3D ( 'NONE', #208, #169, #82 ) ;
#27 = SURFACE_SIDE_STYLE ('',( #168 ) ) ;
#28 = PRESENTATION_STYLE_ASSIGNMENT (( #88 ) ) ;
#29 = FILL_AREA_STYLE_COLOUR ( '', #60 ) ;
#30 = ADVANCED_FACE ( 'NONE', ( #9 ), #35, .F. ) ;
#31 = AXIS2_PLACEMENT_3D ( 'NONE', #1, #202, #161 ) ;
#32 = FACE_OUTER_BOUND ( 'NONE', #43, .T. ) ;
#33 = PRESENTATION_LAYER_ASSIGNMENT (  '', '', ( #48 ) ) ;
#34 = DIRECTION ( 'NONE',  ( 1.000000000000000000, 0.0000000000000000000, 0.0000000000000000000 ) ) ;
#35 = PLANE ( 'NONE',  #207 ) ;
#36 = MECHANICAL_DESIGN_GEOMETRIC_PRESENTATION_REPRESENTATION (  '', ( #14 ), #102 ) ;
#37 = ORIENTED_EDGE ( 'NONE', *, *, #50, .T. ) ;
#38 = PRESENTATION_STYLE_ASSIGNMENT (( #74 ) ) ;
#39 = UNCERTAINTY_MEASURE_WITH_UNIT (LENGTH_MEASURE( 1.000000000000000082E-05 ), #172, 'distance_accuracy_value', 'NONE');
#40 = CARTESIAN_POINT ( 'NONE',  ( -7.041719095097278907E-17, 0.0000000000000000000, 0.0000000000000000000 ) ) ;
#41 =( NAMED_UNIT ( * ) SI_UNIT ( $, .STERADIAN. ) SOLID_ANGLE_UNIT ( ) );
#42 =( LENGTH_UNIT ( ) NAMED_UNIT ( * ) SI_UNIT ( .MILLI., .METRE. ) );
#43 = EDGE_LOOP ( 'NONE', ( #119 ) ) ;
#44 = FILL_AREA_STYLE ('',( #179 ) ) ;
#45 = EDGE_LOOP ( 'NONE', ( #146 ) ) ;
#46 = CARTESIAN_POINT ( 'NONE',  ( 26.00000000000000000, 0.0000000000000000000, -1.150000000000003020 ) ) ;
#47 = EDGE_CURVE ( 'NONE', #72, #72, #71, .T. ) ;
#48 = STYLED_ITEM ( 'NONE', ( #84 ), #181 ) ;
#49 = ORIENTED_EDGE ( 'NONE', *, *, #47, .F. ) ;
#50 = EDGE_CURVE ( 'NONE', #170, #170, #194, .T. ) ;
#51 = FILL_AREA_STYLE_COLOUR ( '', #197 ) ;
#52 = EDGE_LOOP ( 'NONE', ( #148 ) ) ;
#53 = DIRECTION ( 'NONE',  ( 0.0000000000000000000, 0.0000000000000000000, -1.000000000000000000 ) ) ;
#54 = COLOUR_RGB ( '',0.7921568627450980005, 0.8196078431372548767, 0.9333333333333333481 ) ;
#55 =( NAMED_UNIT ( * ) PLANE_ANGLE_UNIT ( ) SI_UNIT ( $, .RADIAN. ) );
#56 = COLOUR_RGB ( '',0.7921568627450980005, 0.8196078431372548767, 0.9333333333333333481 ) ;
#57 = CARTESIAN_POINT ( 'NONE',  ( -947.0000000000000000, 0.0000000000000000000, 0.0000000000000000000 ) ) ;
#58 = CIRCLE ( 'NONE', #118, 1.150000000000003020 ) ;
#59 = AXIS2_PLACEMENT_3D ( 'NONE', #40, #12, #20 ) ;
#60 = COLOUR_RGB ( '',1.000000000000000000, 1.000000000000000000, 0.0000000000000000000 ) ;
#61 = APPLICATION_CONTEXT ( 'automotive_design' ) ;
#62 = COLOUR_RGB ( '',0.7921568627450980005, 0.8196078431372548767, 0.9333333333333333481 ) ;
#63 = AXIS2_PLACEMENT_3D ( 'NONE', #57, #206, #212 ) ;
#64 = MECHANICAL_DESIGN_GEOMETRIC_PRESENTATION_REPRESENTATION (  '', ( #10 ), #183 ) ;
#65 = DIRECTION ( 'NONE',  ( 1.000000000000000000, 0.0000000000000000000, 0.0000000000000000000 ) ) ;
#66 = PRESENTATION_STYLE_ASSIGNMENT (( #203 ) ) ;
#67 = ORIENTED_EDGE ( 'NONE', *, *, #205, .T. ) ;
#68 = CARTESIAN_POINT ( 'NONE',  ( 26.00000000000000000, 0.0000000000000000000, 0.0000000000000000000 ) ) ;
#69 = CONICAL_SURFACE ( 'NONE', #63, 2414.213562373079185, 1.178097245096170198 ) ;
#70 = PRODUCT_DEFINITION_SHAPE ( 'NONE', 'NONE',  #173 ) ;
#71 = CIRCLE ( 'NONE', #31, 0.9200000000000041478 ) ;
#72 = VERTEX_POINT ( 'NONE', #80 ) ;
#73 = PLANE ( 'NONE',  #87 ) ;
#74 = SURFACE_STYLE_USAGE ( .BOTH. , #186 ) ;
#75 = EDGE_CURVE ( 'NONE', #166, #166, #13, .T. ) ;
#76 = PRESENTATION_LAYER_ASSIGNMENT (  '', '', ( #91 ) ) ;
#77 = FILL_AREA_STYLE_COLOUR ( '', #54 ) ;
#78 = PRODUCT_CONTEXT ( 'NONE', #61, 'mechanical' ) ;
#79 = APPLICATION_PROTOCOL_DEFINITION ( 'draft international standard', 'automotive_design', 1998, #61 ) ;
#80 = CARTESIAN_POINT ( 'NONE',  ( -7.041719095097278907E-17, 0.0000000000000000000, -0.9200000000000041478 ) ) ;
#81 = UNCERTAINTY_MEASURE_WITH_UNIT (LENGTH_MEASURE( 1.000000000000000082E-05 ), #160, 'distance_accuracy_value', 'NONE');
#82 = DIRECTION ( 'NONE',  ( 0.0000000000000000000, 0.0000000000000000000, 1.000000000000000000 ) ) ;
#83 = DIRECTION ( 'NONE',  ( 0.0000000000000000000, 0.0000000000000000000, 1.000000000000000000 ) ) ;
#84 = PRESENTATION_STYLE_ASSIGNMENT (( #22 ) ) ;
#85 = DIRECTION ( 'NONE',  ( 0.0000000000000000000, 0.0000000000000000000, -1.000000000000000000 ) ) ;
#86 = ADVANCED_FACE ( 'NONE', ( #135 ), #69, .T. ) ;
#87 = AXIS2_PLACEMENT_3D ( 'NONE', #171, #117, #162 ) ;
#88 = SURFACE_STYLE_USAGE ( .BOTH. , #196 ) ;
#89 = VERTEX_POINT ( 'NONE', #123 ) ;
#90 = EDGE_LOOP ( 'NONE', ( #49 ) ) ;
#91 = STYLED_ITEM ( 'NONE', ( #128 ), #209 ) ;
#92 = EDGE_LOOP ( 'NONE', ( #150 ) ) ;
#93 = PRESENTATION_LAYER_ASSIGNMENT (  '', '', ( #3 ) ) ;
#94 = DIRECTION ( 'NONE',  ( 0.0000000000000000000, 0.0000000000000000000, -1.000000000000000000 ) ) ;
#95 = FILL_AREA_STYLE ('',( #201 ) ) ;
#96 = DIRECTION ( 'NONE',  ( -1.000000000000000000, -0.0000000000000000000, -0.0000000000000000000 ) ) ;
#97 = DIRECTION ( 'NONE',  ( 0.0000000000000000000, 0.0000000000000000000, 1.000000000000000000 ) ) ;
#98 = APPLICATION_CONTEXT ( 'automotive_design' ) ;
#99 =( NAMED_UNIT ( * ) SI_UNIT ( $, .STERADIAN. ) SOLID_ANGLE_UNIT ( ) );
#100 = CARTESIAN_POINT ( 'NONE',  ( 52.52365440327093182, 0.0000000000000000000, 1.150000000000006573 ) ) ;
#101 = SURFACE_STYLE_FILL_AREA ( #213 ) ;
#102 =( GEOMETRIC_REPRESENTATION_CONTEXT ( 3 ) GLOBAL_UNCERTAINTY_ASSIGNED_CONTEXT ( ( #81 ) ) GLOBAL_UNIT_ASSIGNED_CONTEXT ( ( #160, #124, #41 ) ) REPRESENTATION_CONTEXT ( 'NONE', 'WORKASPACE' ) );
#103 = AXIS2_PLACEMENT_3D ( 'NONE', #211, #116, #94 ) ;
#104 = MANIFOLD_SOLID_BREP ( 'ºÐÇÒ2[1]', #120 ) ;
#105 =( GEOMETRIC_REPRESENTATION_CONTEXT ( 3 ) GLOBAL_UNCERTAINTY_ASSIGNED_CONTEXT ( ( #158 ) ) GLOBAL_UNIT_ASSIGNED_CONTEXT ( ( #42, #130, #182 ) ) REPRESENTATION_CONTEXT ( 'NONE', 'WORKASPACE' ) );
#106 = CARTESIAN_POINT ( 'NONE',  ( 0.2299999999999964018, 0.0000000000000000000, 0.0000000000000000000 ) ) ;
#107 = ORIENTED_EDGE ( 'NONE', *, *, #50, .F. ) ;
#108 = ADVANCED_FACE ( 'NONE', ( #139 ), #145, .F. ) ;
#109 = SURFACE_SIDE_STYLE ('',( #112 ) ) ;
#110 = PRODUCT_DEFINITION_FORMATION_WITH_SPECIFIED_SOURCE ( 'ANY', '', #143, .NOT_KNOWN. ) ;
#111 = SHAPE_DEFINITION_REPRESENTATION ( #70, #127 ) ;
#112 = SURFACE_STYLE_FILL_AREA ( #174 ) ;
#113 = EDGE_LOOP ( 'NONE', ( #156 ) ) ;
#114 =( GEOMETRIC_REPRESENTATION_CONTEXT ( 3 ) GLOBAL_UNCERTAINTY_ASSIGNED_CONTEXT ( ( #39 ) ) GLOBAL_UNIT_ASSIGNED_CONTEXT ( ( #172, #55, #159 ) ) REPRESENTATION_CONTEXT ( 'NONE', 'WORKASPACE' ) );
#115 = AXIS2_PLACEMENT_3D ( 'NONE', #106, #129, #178 ) ;
#116 = DIRECTION ( 'NONE',  ( 1.000000000000000000, 0.0000000000000000000, 0.0000000000000000000 ) ) ;
#117 = DIRECTION ( 'NONE',  ( 1.000000000000000000, 0.0000000000000000000, 0.0000000000000000000 ) ) ;
#118 = AXIS2_PLACEMENT_3D ( 'NONE', #68, #125, #85 ) ;
#119 = ORIENTED_EDGE ( 'NONE', *, *, #200, .T. ) ;
#120 = CLOSED_SHELL ( 'NONE', ( #11, #108, #167, #152 ) ) ;
#121 = PRODUCT_RELATED_PRODUCT_CATEGORY ( 'part', '', ( #143 ) ) ;
#122 =( NAMED_UNIT ( * ) SI_UNIT ( $, .STERADIAN. ) SOLID_ANGLE_UNIT ( ) );
#123 = CARTESIAN_POINT ( 'NONE',  ( 26.00000000000000000, 0.0000000000000000000, -1.150000000000003020 ) ) ;
#124 =( NAMED_UNIT ( * ) PLANE_ANGLE_UNIT ( ) SI_UNIT ( $, .RADIAN. ) );
#125 = DIRECTION ( 'NONE',  ( 1.000000000000000000, 0.0000000000000000000, 0.0000000000000000000 ) ) ;
#126 = SURFACE_STYLE_FILL_AREA ( #44 ) ;
#127 = ADVANCED_BREP_SHAPE_REPRESENTATION ( '03-1629', ( #104, #181, #142 ), #154 ) ;
#128 = PRESENTATION_STYLE_ASSIGNMENT (( #149 ) ) ;
#129 = DIRECTION ( 'NONE',  ( 1.000000000000000000, 0.0000000000000000000, 0.0000000000000000000 ) ) ;
#130 =( NAMED_UNIT ( * ) PLANE_ANGLE_UNIT ( ) SI_UNIT ( $, .RADIAN. ) );
#131 = MECHANICAL_DESIGN_GEOMETRIC_PRESENTATION_REPRESENTATION (  '', ( #48 ), #105 ) ;
#132 =( LENGTH_UNIT ( ) NAMED_UNIT ( * ) SI_UNIT ( .MILLI., .METRE. ) );
#133 =( NAMED_UNIT ( * ) PLANE_ANGLE_UNIT ( ) SI_UNIT ( $, .RADIAN. ) );
#134 =( NAMED_UNIT ( * ) PLANE_ANGLE_UNIT ( ) SI_UNIT ( $, .RADIAN. ) );
#135 = FACE_OUTER_BOUND ( 'NONE', #184, .T. ) ;
#136 = AXIS2_PLACEMENT_3D ( 'NONE', #8, #65, #165 ) ;
#137 = CARTESIAN_POINT ( 'NONE',  ( 0.0000000000000000000, 0.0000000000000000000, 0.0000000000000000000 ) ) ;
#138 = EDGE_LOOP ( 'NONE', ( #67 ) ) ;
#139 = FACE_OUTER_BOUND ( 'NONE', #92, .T. ) ;
#140 = CONICAL_SURFACE ( 'NONE', #59, 0.9200000000000041478, 0.7853981633974533860 ) ;
#141 = AXIS2_PLACEMENT_3D ( 'NONE', #137, #153, #192 ) ;
#142 = AXIS2_PLACEMENT_3D ( 'NONE', #25, #97, #177 ) ;
#143 = PRODUCT ( '03-1629', '03-1629', '', ( #78 ) ) ;
#144 = FACE_OUTER_BOUND ( 'NONE', #52, .T. ) ;
#145 = PLANE ( 'NONE',  #103 ) ;
#146 = ORIENTED_EDGE ( 'NONE', *, *, #205, .F. ) ;
#147 = FACE_OUTER_BOUND ( 'NONE', #138, .T. ) ;
#148 = ORIENTED_EDGE ( 'NONE', *, *, #75, .F. ) ;
#149 = SURFACE_STYLE_USAGE ( .BOTH. , #27 ) ;
#150 = ORIENTED_EDGE ( 'NONE', *, *, #47, .T. ) ;
#151 = CIRCLE ( 'NONE', #136, 1.150000000000003020 ) ;
#152 = ADVANCED_FACE ( 'NONE', ( #32 ), #73, .T. ) ;
#153 = DIRECTION ( 'NONE',  ( -1.000000000000000000, -0.0000000000000000000, -0.0000000000000000000 ) ) ;
#154 =( GEOMETRIC_REPRESENTATION_CONTEXT ( 3 ) GLOBAL_UNCERTAINTY_ASSIGNED_CONTEXT ( ( #210 ) ) GLOBAL_UNIT_ASSIGNED_CONTEXT ( ( #180, #133, #99 ) ) REPRESENTATION_CONTEXT ( 'NONE', 'WORKASPACE' ) );
#155 = CLOSED_SHELL ( 'NONE', ( #30, #209, #86 ) ) ;
#156 = ORIENTED_EDGE ( 'NONE', *, *, #75, .T. ) ;
#157 = PRESENTATION_LAYER_ASSIGNMENT (  '', '', ( #14 ) ) ;
#158 = UNCERTAINTY_MEASURE_WITH_UNIT (LENGTH_MEASURE( 1.000000000000000082E-05 ), #42, 'distance_accuracy_value', 'NONE');
#159 =( NAMED_UNIT ( * ) SI_UNIT ( $, .STERADIAN. ) SOLID_ANGLE_UNIT ( ) );
#160 =( LENGTH_UNIT ( ) NAMED_UNIT ( * ) SI_UNIT ( .MILLI., .METRE. ) );
#161 = DIRECTION ( 'NONE',  ( 0.0000000000000000000, 0.0000000000000000000, -1.000000000000000000 ) ) ;
#162 = DIRECTION ( 'NONE',  ( 0.0000000000000000000, 0.0000000000000000000, -1.000000000000000000 ) ) ;
#163 = SURFACE_SIDE_STYLE ('',( #126 ) ) ;
#164 = CARTESIAN_POINT ( 'NONE',  ( 0.2299999999999964018, 0.0000000000000000000, -1.150000000000003020 ) ) ;
#165 = DIRECTION ( 'NONE',  ( 0.0000000000000000000, 0.0000000000000000000, -1.000000000000000000 ) ) ;
#166 = VERTEX_POINT ( 'NONE', #164 ) ;
#167 = ADVANCED_FACE ( 'NONE', ( #144, #199 ), #140, .T. ) ;
#168 = SURFACE_STYLE_FILL_AREA ( #195 ) ;
#169 = DIRECTION ( 'NONE',  ( -1.000000000000000000, -0.0000000000000000000, -0.0000000000000000000 ) ) ;
#170 = VERTEX_POINT ( 'NONE', #100 ) ;
#171 = CARTESIAN_POINT ( 'NONE',  ( 26.00000000000000000, 0.0000000000000000000, 0.0000000000000000000 ) ) ;
#172 =( LENGTH_UNIT ( ) NAMED_UNIT ( * ) SI_UNIT ( .MILLI., .METRE. ) );
#173 = PRODUCT_DEFINITION ( 'UNKNOWN', '', #110, #185 ) ;
#174 = FILL_AREA_STYLE ('',( #77 ) ) ;
#175 = VERTEX_POINT ( 'NONE', #46 ) ;
#176 = MECHANICAL_DESIGN_GEOMETRIC_PRESENTATION_REPRESENTATION (  '', ( #3 ), #114 ) ;
#177 = DIRECTION ( 'NONE',  ( 1.000000000000000000, 0.0000000000000000000, 0.0000000000000000000 ) ) ;
#178 = DIRECTION ( 'NONE',  ( 0.0000000000000000000, 0.0000000000000000000, -1.000000000000000000 ) ) ;
#179 = FILL_AREA_STYLE_COLOUR ( '', #56 ) ;
#180 =( LENGTH_UNIT ( ) NAMED_UNIT ( * ) SI_UNIT ( .MILLI., .METRE. ) );
#181 = MANIFOLD_SOLID_BREP ( 'ºÐÇÒ2[2]', #155 ) ;
#182 =( NAMED_UNIT ( * ) SI_UNIT ( $, .STERADIAN. ) SOLID_ANGLE_UNIT ( ) );
#183 =( GEOMETRIC_REPRESENTATION_CONTEXT ( 3 ) GLOBAL_UNCERTAINTY_ASSIGNED_CONTEXT ( ( #15 ) ) GLOBAL_UNIT_ASSIGNED_CONTEXT ( ( #132, #24, #122 ) ) REPRESENTATION_CONTEXT ( 'NONE', 'WORKASPACE' ) );
#184 = EDGE_LOOP ( 'NONE', ( #107 ) ) ;
#185 = PRODUCT_DEFINITION_CONTEXT ( 'detailed design', #98, 'design' ) ;
#186 = SURFACE_SIDE_STYLE ('',( #18 ) ) ;
#187 = CARTESIAN_POINT ( 'NONE',  ( 52.52365440327093182, 0.0000000000000000000, 0.0000000000000000000 ) ) ;
#188 = FACE_OUTER_BOUND ( 'NONE', #113, .T. ) ;
#189 = APPLICATION_PROTOCOL_DEFINITION ( 'draft international standard', 'automotive_design', 1998, #98 ) ;
#190 = AXIS2_PLACEMENT_3D ( 'NONE', #187, #96, #83 ) ;
#191 = MECHANICAL_DESIGN_GEOMETRIC_PRESENTATION_REPRESENTATION (  '', ( #91 ), #4 ) ;
#192 = DIRECTION ( 'NONE',  ( 0.0000000000000000000, 0.0000000000000000000, 1.000000000000000000 ) ) ;
#193 = UNCERTAINTY_MEASURE_WITH_UNIT (LENGTH_MEASURE( 1.000000000000000082E-05 ), #5, 'distance_accuracy_value', 'NONE');
#194 = CIRCLE ( 'NONE', #190, 1.150000000000006573 ) ;
#195 = FILL_AREA_STYLE ('',( #29 ) ) ;
#196 = SURFACE_SIDE_STYLE ('',( #101 ) ) ;
#197 = COLOUR_RGB ( '',1.000000000000000000, 1.000000000000000000, 0.0000000000000000000 ) ;
#198 = EDGE_LOOP ( 'NONE', ( #2 ) ) ;
#199 = FACE_BOUND ( 'NONE', #90, .T. ) ;
#200 = EDGE_CURVE ( 'NONE', #175, #175, #151, .T. ) ;
#201 = FILL_AREA_STYLE_COLOUR ( '', #62 ) ;
#202 = DIRECTION ( 'NONE',  ( -1.000000000000000000, -0.0000000000000000000, -0.0000000000000000000 ) ) ;
#203 = SURFACE_STYLE_USAGE ( .BOTH. , #163 ) ;
#204 =( NAMED_UNIT ( * ) SI_UNIT ( $, .STERADIAN. ) SOLID_ANGLE_UNIT ( ) );
#205 = EDGE_CURVE ( 'NONE', #89, #89, #58, .T. ) ;
#206 = DIRECTION ( 'NONE',  ( -1.000000000000000000, -0.0000000000000000000, -0.0000000000000000000 ) ) ;
#207 = AXIS2_PLACEMENT_3D ( 'NONE', #7, #34, #53 ) ;
#208 = CARTESIAN_POINT ( 'NONE',  ( 0.0000000000000000000, 0.0000000000000000000, 0.0000000000000000000 ) ) ;
#209 = ADVANCED_FACE ( 'NONE', ( #147, #19 ), #16, .T. ) ;
#210 = UNCERTAINTY_MEASURE_WITH_UNIT (LENGTH_MEASURE( 1.000000000000000082E-05 ), #180, 'distance_accuracy_value', 'NONE');
#211 = CARTESIAN_POINT ( 'NONE',  ( -7.041719095097278907E-17, 1.149999999999999689, 0.0000000000000000000 ) ) ;
#212 = DIRECTION ( 'NONE',  ( 0.0000000000000000000, 0.0000000000000000000, 1.000000000000000000 ) ) ;
#213 = FILL_AREA_STYLE ('',( #51 ) ) ;
ENDSEC;
END-ISO-10303-21;
