ISO-10303-21;
HEADER;
FILE_DESCRIPTION (( 'STEP AP214' ),
    '1' );
FILE_NAME ('03-1633.STEP',
    '2021-10-01T05:04:12',
    ( 'USER' ),
    ( '' ),
    'SwSTEP 2.0',
    'SolidWorks 2018',
    '' );
FILE_SCHEMA (( 'AUTOMOTIVE_DESIGN' ));
ENDSEC;

DATA;
#1 = DIRECTION ( 'NONE',  ( 0.0000000000000000000, 0.0000000000000000000, -1.000000000000000000 ) ) ;
#2 = FACE_OUTER_BOUND ( 'NONE', #185, .T. ) ;
#3 = DIRECTION ( 'NONE',  ( 0.0000000000000000000, 0.0000000000000000000, -1.000000000000000000 ) ) ;
#4 = DIRECTION ( 'NONE',  ( -1.000000000000000000, -0.0000000000000000000, -0.0000000000000000000 ) ) ;
#5 = FACE_OUTER_BOUND ( 'NONE', #55, .T. ) ;
#6 = PRESENTATION_LAYER_ASSIGNMENT (  '', '', ( #61 ) ) ;
#7 = STYLED_ITEM ( 'NONE', ( #104 ), #171 ) ;
#8 = EDGE_LOOP ( 'NONE', ( #147 ) ) ;
#9 = STYLED_ITEM ( 'NONE', ( #116 ), #20 ) ;
#10 = EDGE_CURVE ( 'NONE', #86, #86, #91, .T. ) ;
#11 = APPLICATION_PROTOCOL_DEFINITION ( 'draft international standard', 'automotive_design', 1998, #132 ) ;
#12 =( NAMED_UNIT ( * ) SI_UNIT ( $, .STERADIAN. ) SOLID_ANGLE_UNIT ( ) );
#13 = FACE_OUTER_BOUND ( 'NONE', #59, .T. ) ;
#14 = ORIENTED_EDGE ( 'NONE', *, *, #99, .F. ) ;
#15 =( LENGTH_UNIT ( ) NAMED_UNIT ( * ) SI_UNIT ( .MILLI., .METRE. ) );
#16 = ADVANCED_FACE ( 'NONE', ( #51 ), #36, .F. ) ;
#17 = CARTESIAN_POINT ( 'NONE',  ( 0.0000000000000000000, 0.0000000000000000000, 0.0000000000000000000 ) ) ;
#18 = CARTESIAN_POINT ( 'NONE',  ( 0.0000000000000000000, 0.0000000000000000000, 0.0000000000000000000 ) ) ;
#19 = FILL_AREA_STYLE_COLOUR ( '', #42 ) ;
#20 = ADVANCED_BREP_SHAPE_REPRESENTATION ( '03-1633', ( #157, #171, #78 ), #198 ) ;
#21 = CARTESIAN_POINT ( 'NONE',  ( 27.99999999999999645, 0.0000000000000000000, 0.0000000000000000000 ) ) ;
#22 = CARTESIAN_POINT ( 'NONE',  ( 27.99999999999999645, 0.0000000000000000000, 0.0000000000000000000 ) ) ;
#23 = MECHANICAL_DESIGN_GEOMETRIC_PRESENTATION_REPRESENTATION (  '', ( #160 ), #176 ) ;
#24 = PRESENTATION_LAYER_ASSIGNMENT (  '', '', ( #9 ) ) ;
#25 = AXIS2_PLACEMENT_3D ( 'NONE', #126, #4, #113 ) ;
#26 = AXIS2_PLACEMENT_3D ( 'NONE', #194, #90, #178 ) ;
#27 = CLOSED_SHELL ( 'NONE', ( #136, #210, #85 ) ) ;
#28 = EDGE_CURVE ( 'NONE', #127, #127, #130, .T. ) ;
#29 = PRODUCT_CONTEXT ( 'NONE', #187, 'mechanical' ) ;
#30 =( NAMED_UNIT ( * ) PLANE_ANGLE_UNIT ( ) SI_UNIT ( $, .RADIAN. ) );
#31 =( GEOMETRIC_REPRESENTATION_CONTEXT ( 3 ) GLOBAL_UNCERTAINTY_ASSIGNED_CONTEXT ( ( #201 ) ) GLOBAL_UNIT_ASSIGNED_CONTEXT ( ( #193, #89, #69 ) ) REPRESENTATION_CONTEXT ( 'NONE', 'WORKASPACE' ) );
#32 = FILL_AREA_STYLE_COLOUR ( '', #186 ) ;
#33 = CARTESIAN_POINT ( 'NONE',  ( 27.99999999999999645, 0.0000000000000000000, -1.350000000000004086 ) ) ;
#34 = VERTEX_POINT ( 'NONE', #33 ) ;
#35 = MECHANICAL_DESIGN_GEOMETRIC_PRESENTATION_REPRESENTATION (  '', ( #9 ), #45 ) ;
#36 = PLANE ( 'NONE',  #142 ) ;
#37 = DIRECTION ( 'NONE',  ( 0.0000000000000000000, 0.0000000000000000000, -1.000000000000000000 ) ) ;
#38 = AXIS2_PLACEMENT_3D ( 'NONE', #49, #172, #204 ) ;
#39 = CLOSED_SHELL ( 'NONE', ( #190, #16, #149, #66 ) ) ;
#40 = CARTESIAN_POINT ( 'NONE',  ( 27.99999999999999645, 0.0000000000000000000, 0.0000000000000000000 ) ) ;
#41 = SHAPE_DEFINITION_REPRESENTATION ( #62, #20 ) ;
#42 = COLOUR_RGB ( '',0.7921568627450980005, 0.8196078431372548767, 0.9333333333333333481 ) ;
#43 = UNCERTAINTY_MEASURE_WITH_UNIT (LENGTH_MEASURE( 1.000000000000000082E-05 ), #15, 'distance_accuracy_value', 'NONE');
#44 = EDGE_LOOP ( 'NONE', ( #57 ) ) ;
#45 =( GEOMETRIC_REPRESENTATION_CONTEXT ( 3 ) GLOBAL_UNCERTAINTY_ASSIGNED_CONTEXT ( ( #56 ) ) GLOBAL_UNIT_ASSIGNED_CONTEXT ( ( #188, #82, #173 ) ) REPRESENTATION_CONTEXT ( 'NONE', 'WORKASPACE' ) );
#46 = FILL_AREA_STYLE_COLOUR ( '', #161 ) ;
#47 = DIRECTION ( 'NONE',  ( 0.0000000000000000000, 0.0000000000000000000, -1.000000000000000000 ) ) ;
#48 = ORIENTED_EDGE ( 'NONE', *, *, #80, .F. ) ;
#49 = CARTESIAN_POINT ( 'NONE',  ( 60.44081169079630911, 0.0000000000000000000, 0.0000000000000000000 ) ) ;
#50 = CARTESIAN_POINT ( 'NONE',  ( 0.2700000000000101208, 0.0000000000000000000, 0.0000000000000000000 ) ) ;
#51 = FACE_OUTER_BOUND ( 'NONE', #98, .T. ) ;
#52 = FILL_AREA_STYLE_COLOUR ( '', #129 ) ;
#53 = MECHANICAL_DESIGN_GEOMETRIC_PRESENTATION_REPRESENTATION (  '', ( #61 ), #212 ) ;
#54 = PRESENTATION_STYLE_ASSIGNMENT (( #84 ) ) ;
#55 = EDGE_LOOP ( 'NONE', ( #14 ) ) ;
#56 = UNCERTAINTY_MEASURE_WITH_UNIT (LENGTH_MEASURE( 1.000000000000000082E-05 ), #188, 'distance_accuracy_value', 'NONE');
#57 = ORIENTED_EDGE ( 'NONE', *, *, #10, .T. ) ;
#58 = FACE_OUTER_BOUND ( 'NONE', #174, .T. ) ;
#59 = EDGE_LOOP ( 'NONE', ( #140 ) ) ;
#60 = UNCERTAINTY_MEASURE_WITH_UNIT (LENGTH_MEASURE( 1.000000000000000082E-05 ), #177, 'distance_accuracy_value', 'NONE');
#61 = STYLED_ITEM ( 'NONE', ( #205 ), #85 ) ;
#62 = PRODUCT_DEFINITION_SHAPE ( 'NONE', 'NONE',  #96 ) ;
#63 = CARTESIAN_POINT ( 'NONE',  ( 0.0000000000000000000, 0.0000000000000000000, 0.0000000000000000000 ) ) ;
#64 = PRESENTATION_LAYER_ASSIGNMENT (  '', '', ( #7 ) ) ;
#65 =( NAMED_UNIT ( * ) PLANE_ANGLE_UNIT ( ) SI_UNIT ( $, .RADIAN. ) );
#66 = ADVANCED_FACE ( 'NONE', ( #2 ), #167, .T. ) ;
#67 =( NAMED_UNIT ( * ) PLANE_ANGLE_UNIT ( ) SI_UNIT ( $, .RADIAN. ) );
#68 = FACE_BOUND ( 'NONE', #8, .T. ) ;
#69 =( NAMED_UNIT ( * ) SI_UNIT ( $, .STERADIAN. ) SOLID_ANGLE_UNIT ( ) );
#70 = MECHANICAL_DESIGN_GEOMETRIC_PRESENTATION_REPRESENTATION (  '', ( #118 ), #31 ) ;
#71 =( NAMED_UNIT ( * ) PLANE_ANGLE_UNIT ( ) SI_UNIT ( $, .RADIAN. ) );
#72 = PRESENTATION_LAYER_ASSIGNMENT (  '', '', ( #118 ) ) ;
#73 = DIRECTION ( 'NONE',  ( 0.0000000000000000000, 0.0000000000000000000, -1.000000000000000000 ) ) ;
#74 = UNCERTAINTY_MEASURE_WITH_UNIT (LENGTH_MEASURE( 1.000000000000000082E-05 ), #179, 'distance_accuracy_value', 'NONE');
#75 = CIRCLE ( 'NONE', #26, 1.350000000000004086 ) ;
#76 = AXIS2_PLACEMENT_3D ( 'NONE', #40, #93, #180 ) ;
#77 = VERTEX_POINT ( 'NONE', #105 ) ;
#78 = AXIS2_PLACEMENT_3D ( 'NONE', #63, #158, #146 ) ;
#79 = AXIS2_PLACEMENT_3D ( 'NONE', #21, #133, #47 ) ;
#80 = EDGE_CURVE ( 'NONE', #77, #77, #200, .T. ) ;
#81 = CONICAL_SURFACE ( 'NONE', #106, 2414.213562373047807, 1.178097245096165535 ) ;
#82 =( NAMED_UNIT ( * ) PLANE_ANGLE_UNIT ( ) SI_UNIT ( $, .RADIAN. ) );
#83 = CARTESIAN_POINT ( 'NONE',  ( 0.2700000000000101208, 0.0000000000000000000, -1.350000000000004086 ) ) ;
#84 = SURFACE_STYLE_USAGE ( .BOTH. , #107 ) ;
#85 = ADVANCED_FACE ( 'NONE', ( #131 ), #81, .T. ) ;
#86 = VERTEX_POINT ( 'NONE', #122 ) ;
#87 = CIRCLE ( 'NONE', #184, 1.350000000000004086 ) ;
#88 = SURFACE_STYLE_USAGE ( .BOTH. , #191 ) ;
#89 =( NAMED_UNIT ( * ) PLANE_ANGLE_UNIT ( ) SI_UNIT ( $, .RADIAN. ) );
#90 = DIRECTION ( 'NONE',  ( 1.000000000000000000, 0.0000000000000000000, 0.0000000000000000000 ) ) ;
#91 = CIRCLE ( 'NONE', #38, 1.350000000000007638 ) ;
#92 = SURFACE_STYLE_USAGE ( .BOTH. , #195 ) ;
#93 = DIRECTION ( 'NONE',  ( 1.000000000000000000, 0.0000000000000000000, 0.0000000000000000000 ) ) ;
#94 = AXIS2_PLACEMENT_3D ( 'NONE', #22, #125, #3 ) ;
#95 = DIRECTION ( 'NONE',  ( 1.000000000000000000, 0.0000000000000000000, 0.0000000000000000000 ) ) ;
#96 = PRODUCT_DEFINITION ( 'UNKNOWN', '', #109, #183 ) ;
#97 = EDGE_CURVE ( 'NONE', #34, #34, #75, .T. ) ;
#98 = EDGE_LOOP ( 'NONE', ( #192 ) ) ;
#99 = EDGE_CURVE ( 'NONE', #197, #197, #87, .T. ) ;
#100 = APPLICATION_PROTOCOL_DEFINITION ( 'draft international standard', 'automotive_design', 1998, #187 ) ;
#101 = CARTESIAN_POINT ( 'NONE',  ( -8.266365894244635566E-17, 1.350000000000000089, 0.0000000000000000000 ) ) ;
#102 = SURFACE_STYLE_USAGE ( .BOTH. , #206 ) ;
#103 = CYLINDRICAL_SURFACE ( 'NONE', #196, 1.350000000000004086 ) ;
#104 = PRESENTATION_STYLE_ASSIGNMENT (( #88 ) ) ;
#105 = CARTESIAN_POINT ( 'NONE',  ( 27.99999999999999645, 0.0000000000000000000, -1.350000000000004086 ) ) ;
#106 = AXIS2_PLACEMENT_3D ( 'NONE', #155, #139, #154 ) ;
#107 = SURFACE_SIDE_STYLE ('',( #143 ) ) ;
#108 = FILL_AREA_STYLE ('',( #32 ) ) ;
#109 = PRODUCT_DEFINITION_FORMATION_WITH_SPECIFIED_SOURCE ( 'ANY', '', #199, .NOT_KNOWN. ) ;
#110 = SURFACE_STYLE_USAGE ( .BOTH. , #213 ) ;
#111 = PRESENTATION_STYLE_ASSIGNMENT (( #110 ) ) ;
#112 = FILL_AREA_STYLE ('',( #52 ) ) ;
#113 = DIRECTION ( 'NONE',  ( 0.0000000000000000000, 0.0000000000000000000, -1.000000000000000000 ) ) ;
#114 = FACE_OUTER_BOUND ( 'NONE', #152, .T. ) ;
#115 = ORIENTED_EDGE ( 'NONE', *, *, #10, .F. ) ;
#116 = PRESENTATION_STYLE_ASSIGNMENT (( #102 ) ) ;
#117 = SURFACE_STYLE_FILL_AREA ( #108 ) ;
#118 = STYLED_ITEM ( 'NONE', ( #111 ), #157 ) ;
#119 = EDGE_LOOP ( 'NONE', ( #48 ) ) ;
#120 = PRODUCT_RELATED_PRODUCT_CATEGORY ( 'part', '', ( #199 ) ) ;
#121 = FILL_AREA_STYLE ('',( #46 ) ) ;
#122 = CARTESIAN_POINT ( 'NONE',  ( 60.44081169079630911, 0.0000000000000000000, 1.350000000000007638 ) ) ;
#123 = CONICAL_SURFACE ( 'NONE', #203, 1.079999999999990745, 0.7853981633974539411 ) ;
#124 = FILL_AREA_STYLE ('',( #19 ) ) ;
#125 = DIRECTION ( 'NONE',  ( 1.000000000000000000, 0.0000000000000000000, 0.0000000000000000000 ) ) ;
#126 = CARTESIAN_POINT ( 'NONE',  ( -8.266365894244635566E-17, 0.0000000000000000000, 0.0000000000000000000 ) ) ;
#127 = VERTEX_POINT ( 'NONE', #134 ) ;
#128 = FACE_OUTER_BOUND ( 'NONE', #119, .T. ) ;
#129 = COLOUR_RGB ( '',1.000000000000000000, 1.000000000000000000, 0.0000000000000000000 ) ;
#130 = CIRCLE ( 'NONE', #25, 1.079999999999990745 ) ;
#131 = FACE_OUTER_BOUND ( 'NONE', #144, .T. ) ;
#132 = APPLICATION_CONTEXT ( 'automotive_design' ) ;
#133 = DIRECTION ( 'NONE',  ( 1.000000000000000000, 0.0000000000000000000, 0.0000000000000000000 ) ) ;
#134 = CARTESIAN_POINT ( 'NONE',  ( -8.266365894244635566E-17, 0.0000000000000000000, -1.079999999999990745 ) ) ;
#135 = FILL_AREA_STYLE_COLOUR ( '', #162 ) ;
#136 = ADVANCED_FACE ( 'NONE', ( #128 ), #164, .F. ) ;
#137 = DIRECTION ( 'NONE',  ( 0.0000000000000000000, 0.0000000000000000000, 1.000000000000000000 ) ) ;
#138 = DIRECTION ( 'NONE',  ( -1.000000000000000000, -0.0000000000000000000, -0.0000000000000000000 ) ) ;
#139 = DIRECTION ( 'NONE',  ( -1.000000000000000000, -0.0000000000000000000, -0.0000000000000000000 ) ) ;
#140 = ORIENTED_EDGE ( 'NONE', *, *, #80, .T. ) ;
#141 = UNCERTAINTY_MEASURE_WITH_UNIT (LENGTH_MEASURE( 1.000000000000000082E-05 ), #175, 'distance_accuracy_value', 'NONE');
#142 = AXIS2_PLACEMENT_3D ( 'NONE', #101, #95, #73 ) ;
#143 = SURFACE_STYLE_FILL_AREA ( #150 ) ;
#144 = EDGE_LOOP ( 'NONE', ( #115 ) ) ;
#145 = SURFACE_STYLE_FILL_AREA ( #124 ) ;
#146 = DIRECTION ( 'NONE',  ( 1.000000000000000000, 0.0000000000000000000, 0.0000000000000000000 ) ) ;
#147 = ORIENTED_EDGE ( 'NONE', *, *, #28, .F. ) ;
#148 = DIRECTION ( 'NONE',  ( 0.0000000000000000000, 0.0000000000000000000, 1.000000000000000000 ) ) ;
#149 = ADVANCED_FACE ( 'NONE', ( #5, #68 ), #123, .T. ) ;
#150 = FILL_AREA_STYLE ('',( #135 ) ) ;
#151 = SURFACE_STYLE_FILL_AREA ( #121 ) ;
#152 = EDGE_LOOP ( 'NONE', ( #166 ) ) ;
#153 = DIRECTION ( 'NONE',  ( 1.000000000000000000, 0.0000000000000000000, 0.0000000000000000000 ) ) ;
#154 = DIRECTION ( 'NONE',  ( 0.0000000000000000000, 0.0000000000000000000, 1.000000000000000000 ) ) ;
#155 = CARTESIAN_POINT ( 'NONE',  ( -939.0000000000000000, 0.0000000000000000000, 0.0000000000000000000 ) ) ;
#156 = MECHANICAL_DESIGN_GEOMETRIC_PRESENTATION_REPRESENTATION (  '', ( #7 ), #170 ) ;
#157 = MANIFOLD_SOLID_BREP ( 'ºÐÇÒ2[1]', #39 ) ;
#158 = DIRECTION ( 'NONE',  ( 0.0000000000000000000, 0.0000000000000000000, 1.000000000000000000 ) ) ;
#159 =( NAMED_UNIT ( * ) SI_UNIT ( $, .STERADIAN. ) SOLID_ANGLE_UNIT ( ) );
#160 = STYLED_ITEM ( 'NONE', ( #54 ), #210 ) ;
#161 = COLOUR_RGB ( '',0.7921568627450980005, 0.8196078431372548767, 0.9333333333333333481 ) ;
#162 = COLOUR_RGB ( '',1.000000000000000000, 1.000000000000000000, 0.0000000000000000000 ) ;
#163 =( NAMED_UNIT ( * ) SI_UNIT ( $, .STERADIAN. ) SOLID_ANGLE_UNIT ( ) );
#164 = PLANE ( 'NONE',  #79 ) ;
#165 =( NAMED_UNIT ( * ) SI_UNIT ( $, .STERADIAN. ) SOLID_ANGLE_UNIT ( ) );
#166 = ORIENTED_EDGE ( 'NONE', *, *, #99, .T. ) ;
#167 = PLANE ( 'NONE',  #76 ) ;
#168 = SURFACE_STYLE_FILL_AREA ( #112 ) ;
#169 = ORIENTED_EDGE ( 'NONE', *, *, #97, .F. ) ;
#170 =( GEOMETRIC_REPRESENTATION_CONTEXT ( 3 ) GLOBAL_UNCERTAINTY_ASSIGNED_CONTEXT ( ( #60 ) ) GLOBAL_UNIT_ASSIGNED_CONTEXT ( ( #177, #67, #163 ) ) REPRESENTATION_CONTEXT ( 'NONE', 'WORKASPACE' ) );
#171 = MANIFOLD_SOLID_BREP ( 'ºÐÇÒ2[2]', #27 ) ;
#172 = DIRECTION ( 'NONE',  ( -1.000000000000000000, -0.0000000000000000000, -0.0000000000000000000 ) ) ;
#173 =( NAMED_UNIT ( * ) SI_UNIT ( $, .STERADIAN. ) SOLID_ANGLE_UNIT ( ) );
#174 = EDGE_LOOP ( 'NONE', ( #169 ) ) ;
#175 =( LENGTH_UNIT ( ) NAMED_UNIT ( * ) SI_UNIT ( .MILLI., .METRE. ) );
#176 =( GEOMETRIC_REPRESENTATION_CONTEXT ( 3 ) GLOBAL_UNCERTAINTY_ASSIGNED_CONTEXT ( ( #141 ) ) GLOBAL_UNIT_ASSIGNED_CONTEXT ( ( #175, #65, #159 ) ) REPRESENTATION_CONTEXT ( 'NONE', 'WORKASPACE' ) );
#177 =( LENGTH_UNIT ( ) NAMED_UNIT ( * ) SI_UNIT ( .MILLI., .METRE. ) );
#178 = DIRECTION ( 'NONE',  ( 0.0000000000000000000, 0.0000000000000000000, -1.000000000000000000 ) ) ;
#179 =( LENGTH_UNIT ( ) NAMED_UNIT ( * ) SI_UNIT ( .MILLI., .METRE. ) );
#180 = DIRECTION ( 'NONE',  ( 0.0000000000000000000, 0.0000000000000000000, -1.000000000000000000 ) ) ;
#181 = FACE_OUTER_BOUND ( 'NONE', #44, .T. ) ;
#182 = ORIENTED_EDGE ( 'NONE', *, *, #97, .T. ) ;
#183 = PRODUCT_DEFINITION_CONTEXT ( 'detailed design', #132, 'design' ) ;
#184 = AXIS2_PLACEMENT_3D ( 'NONE', #50, #153, #37 ) ;
#185 = EDGE_LOOP ( 'NONE', ( #182 ) ) ;
#186 = COLOUR_RGB ( '',0.7921568627450980005, 0.8196078431372548767, 0.9333333333333333481 ) ;
#187 = APPLICATION_CONTEXT ( 'automotive_design' ) ;
#188 =( LENGTH_UNIT ( ) NAMED_UNIT ( * ) SI_UNIT ( .MILLI., .METRE. ) );
#189 = CARTESIAN_POINT ( 'NONE',  ( -8.266365894244635566E-17, 0.0000000000000000000, 0.0000000000000000000 ) ) ;
#190 = ADVANCED_FACE ( 'NONE', ( #114, #58 ), #103, .T. ) ;
#191 = SURFACE_SIDE_STYLE ('',( #117 ) ) ;
#192 = ORIENTED_EDGE ( 'NONE', *, *, #28, .T. ) ;
#193 =( LENGTH_UNIT ( ) NAMED_UNIT ( * ) SI_UNIT ( .MILLI., .METRE. ) );
#194 = CARTESIAN_POINT ( 'NONE',  ( 27.99999999999999645, 0.0000000000000000000, 0.0000000000000000000 ) ) ;
#195 = SURFACE_SIDE_STYLE ('',( #168 ) ) ;
#196 = AXIS2_PLACEMENT_3D ( 'NONE', #18, #138, #137 ) ;
#197 = VERTEX_POINT ( 'NONE', #83 ) ;
#198 =( GEOMETRIC_REPRESENTATION_CONTEXT ( 3 ) GLOBAL_UNCERTAINTY_ASSIGNED_CONTEXT ( ( #43 ) ) GLOBAL_UNIT_ASSIGNED_CONTEXT ( ( #15, #30, #12 ) ) REPRESENTATION_CONTEXT ( 'NONE', 'WORKASPACE' ) );
#199 = PRODUCT ( '03-1633', '03-1633', '', ( #29 ) ) ;
#200 = CIRCLE ( 'NONE', #94, 1.350000000000004086 ) ;
#201 = UNCERTAINTY_MEASURE_WITH_UNIT (LENGTH_MEASURE( 1.000000000000000082E-05 ), #193, 'distance_accuracy_value', 'NONE');
#202 = CYLINDRICAL_SURFACE ( 'NONE', #211, 1.350000000000004086 ) ;
#203 = AXIS2_PLACEMENT_3D ( 'NONE', #189, #208, #1 ) ;
#204 = DIRECTION ( 'NONE',  ( 0.0000000000000000000, 0.0000000000000000000, 1.000000000000000000 ) ) ;
#205 = PRESENTATION_STYLE_ASSIGNMENT (( #92 ) ) ;
#206 = SURFACE_SIDE_STYLE ('',( #151 ) ) ;
#207 = PRESENTATION_LAYER_ASSIGNMENT (  '', '', ( #160 ) ) ;
#208 = DIRECTION ( 'NONE',  ( 1.000000000000000000, 0.0000000000000000000, 0.0000000000000000000 ) ) ;
#209 = DIRECTION ( 'NONE',  ( -1.000000000000000000, -0.0000000000000000000, -0.0000000000000000000 ) ) ;
#210 = ADVANCED_FACE ( 'NONE', ( #13, #181 ), #202, .T. ) ;
#211 = AXIS2_PLACEMENT_3D ( 'NONE', #17, #209, #148 ) ;
#212 =( GEOMETRIC_REPRESENTATION_CONTEXT ( 3 ) GLOBAL_UNCERTAINTY_ASSIGNED_CONTEXT ( ( #74 ) ) GLOBAL_UNIT_ASSIGNED_CONTEXT ( ( #179, #71, #165 ) ) REPRESENTATION_CONTEXT ( 'NONE', 'WORKASPACE' ) );
#213 = SURFACE_SIDE_STYLE ('',( #145 ) ) ;
ENDSEC;
END-ISO-10303-21;
