ISO-10303-21;
HEADER;
FILE_DESCRIPTION (( 'STEP AP214' ),
    '1' );
FILE_NAME ('03-1636.STEP',
    '2021-10-01T05:04:53',
    ( 'USER' ),
    ( '' ),
    'SwSTEP 2.0',
    'SolidWorks 2018',
    '' );
FILE_SCHEMA (( 'AUTOMOTIVE_DESIGN' ));
ENDSEC;

DATA;
#1 =( NAMED_UNIT ( * ) SI_UNIT ( $, .STERADIAN. ) SOLID_ANGLE_UNIT ( ) );
#2 = APPLICATION_PROTOCOL_DEFINITION ( 'draft international standard', 'automotive_design', 1998, #125 ) ;
#3 = EDGE_LOOP ( 'NONE', ( #4 ) ) ;
#4 = ORIENTED_EDGE ( 'NONE', *, *, #150, .T. ) ;
#5 = DIRECTION ( 'NONE',  ( 1.000000000000000000, 0.0000000000000000000, 0.0000000000000000000 ) ) ;
#6 = FILL_AREA_STYLE ('',( #105 ) ) ;
#7 = ORIENTED_EDGE ( 'NONE', *, *, #134, .T. ) ;
#8 = PRESENTATION_STYLE_ASSIGNMENT (( #47 ) ) ;
#9 = DIRECTION ( 'NONE',  ( 0.0000000000000000000, 0.0000000000000000000, 1.000000000000000000 ) ) ;
#10 = DIRECTION ( 'NONE',  ( 1.000000000000000000, 0.0000000000000000000, 0.0000000000000000000 ) ) ;
#11 = MECHANICAL_DESIGN_GEOMETRIC_PRESENTATION_REPRESENTATION (  '', ( #49 ), #122 ) ;
#12 = DIRECTION ( 'NONE',  ( 1.000000000000000000, 0.0000000000000000000, 0.0000000000000000000 ) ) ;
#13 = FILL_AREA_STYLE_COLOUR ( '', #107 ) ;
#14 = SHAPE_DEFINITION_REPRESENTATION ( #120, #186 ) ;
#15 = FACE_BOUND ( 'NONE', #176, .T. ) ;
#16 = PRODUCT_DEFINITION ( 'UNKNOWN', '', #213, #19 ) ;
#17 = ORIENTED_EDGE ( 'NONE', *, *, #167, .F. ) ;
#18 =( NAMED_UNIT ( * ) PLANE_ANGLE_UNIT ( ) SI_UNIT ( $, .RADIAN. ) );
#19 = PRODUCT_DEFINITION_CONTEXT ( 'detailed design', #125, 'design' ) ;
#20 = MANIFOLD_SOLID_BREP ( 'ºÐÇÒ2[2]', #141 ) ;
#21 = DIRECTION ( 'NONE',  ( -1.000000000000000000, -0.0000000000000000000, -0.0000000000000000000 ) ) ;
#22 = AXIS2_PLACEMENT_3D ( 'NONE', #212, #21, #9 ) ;
#23 = CARTESIAN_POINT ( 'NONE',  ( 0.3000000000000026534, 0.0000000000000000000, -1.500000000000003553 ) ) ;
#24 = AXIS2_PLACEMENT_3D ( 'NONE', #53, #191, #139 ) ;
#25 = DIRECTION ( 'NONE',  ( 0.0000000000000000000, 0.0000000000000000000, -1.000000000000000000 ) ) ;
#26 =( NAMED_UNIT ( * ) PLANE_ANGLE_UNIT ( ) SI_UNIT ( $, .RADIAN. ) );
#27 = FACE_OUTER_BOUND ( 'NONE', #115, .T. ) ;
#28 = PLANE ( 'NONE',  #171 ) ;
#29 = UNCERTAINTY_MEASURE_WITH_UNIT (LENGTH_MEASURE( 1.000000000000000082E-05 ), #169, 'distance_accuracy_value', 'NONE');
#30 = PRESENTATION_STYLE_ASSIGNMENT (( #31 ) ) ;
#31 = SURFACE_STYLE_USAGE ( .BOTH. , #154 ) ;
#32 =( NAMED_UNIT ( * ) SI_UNIT ( $, .STERADIAN. ) SOLID_ANGLE_UNIT ( ) );
#33 = CIRCLE ( 'NONE', #180, 1.199999999999992628 ) ;
#34 = PLANE ( 'NONE',  #204 ) ;
#35 = AXIS2_PLACEMENT_3D ( 'NONE', #81, #173, #145 ) ;
#36 = DIRECTION ( 'NONE',  ( -1.000000000000000000, -0.0000000000000000000, -0.0000000000000000000 ) ) ;
#37 = FACE_OUTER_BOUND ( 'NONE', #152, .T. ) ;
#38 = PRESENTATION_LAYER_ASSIGNMENT (  '', '', ( #50 ) ) ;
#39 = CIRCLE ( 'NONE', #90, 1.500000000000007327 ) ;
#40 =( LENGTH_UNIT ( ) NAMED_UNIT ( * ) SI_UNIT ( .MILLI., .METRE. ) );
#41 = FACE_OUTER_BOUND ( 'NONE', #147, .T. ) ;
#42 = CARTESIAN_POINT ( 'NONE',  ( 60.37867965644034740, 0.0000000000000000000, 0.0000000000000000000 ) ) ;
#43 = FACE_OUTER_BOUND ( 'NONE', #178, .T. ) ;
#44 = VERTEX_POINT ( 'NONE', #23 ) ;
#45 = CARTESIAN_POINT ( 'NONE',  ( 60.37867965644034740, 0.0000000000000000000, 1.500000000000007327 ) ) ;
#46 = ADVANCED_FACE ( 'NONE', ( #43 ), #34, .F. ) ;
#47 = SURFACE_STYLE_USAGE ( .BOTH. , #210 ) ;
#48 = CLOSED_SHELL ( 'NONE', ( #195, #140, #71, #155 ) ) ;
#49 = STYLED_ITEM ( 'NONE', ( #101 ), #209 ) ;
#50 = STYLED_ITEM ( 'NONE', ( #80 ), #196 ) ;
#51 = CARTESIAN_POINT ( 'NONE',  ( -9.184850993605149670E-17, 0.0000000000000000000, 0.0000000000000000000 ) ) ;
#52 = SURFACE_SIDE_STYLE ('',( #97 ) ) ;
#53 = CARTESIAN_POINT ( 'NONE',  ( 0.0000000000000000000, 0.0000000000000000000, 0.0000000000000000000 ) ) ;
#54 = EDGE_LOOP ( 'NONE', ( #172 ) ) ;
#55 = VERTEX_POINT ( 'NONE', #79 ) ;
#56 = AXIS2_PLACEMENT_3D ( 'NONE', #201, #12, #77 ) ;
#57 = CYLINDRICAL_SURFACE ( 'NONE', #132, 1.500000000000003553 ) ;
#58 = FACE_OUTER_BOUND ( 'NONE', #83, .T. ) ;
#59 = VERTEX_POINT ( 'NONE', #45 ) ;
#60 =( GEOMETRIC_REPRESENTATION_CONTEXT ( 3 ) GLOBAL_UNCERTAINTY_ASSIGNED_CONTEXT ( ( #29 ) ) GLOBAL_UNIT_ASSIGNED_CONTEXT ( ( #169, #70, #86 ) ) REPRESENTATION_CONTEXT ( 'NONE', 'WORKASPACE' ) );
#61 = ORIENTED_EDGE ( 'NONE', *, *, #134, .F. ) ;
#62 = UNCERTAINTY_MEASURE_WITH_UNIT (LENGTH_MEASURE( 1.000000000000000082E-05 ), #110, 'distance_accuracy_value', 'NONE');
#63 = CONICAL_SURFACE ( 'NONE', #22, 2414.213562373059176, 1.178097245096167311 ) ;
#64 = PRESENTATION_LAYER_ASSIGNMENT (  '', '', ( #49 ) ) ;
#65 = SURFACE_STYLE_FILL_AREA ( #127 ) ;
#66 = FILL_AREA_STYLE_COLOUR ( '', #194 ) ;
#67 = AXIS2_PLACEMENT_3D ( 'NONE', #135, #131, #162 ) ;
#68 = CIRCLE ( 'NONE', #56, 1.500000000000003553 ) ;
#69 = FACE_OUTER_BOUND ( 'NONE', #3, .T. ) ;
#70 =( NAMED_UNIT ( * ) PLANE_ANGLE_UNIT ( ) SI_UNIT ( $, .RADIAN. ) );
#71 = ADVANCED_FACE ( 'NONE', ( #208, #15 ), #148, .T. ) ;
#72 = COLOUR_RGB ( '',1.000000000000000000, 1.000000000000000000, 0.0000000000000000000 ) ;
#73 = CYLINDRICAL_SURFACE ( 'NONE', #35, 1.500000000000003553 ) ;
#74 = AXIS2_PLACEMENT_3D ( 'NONE', #82, #206, #117 ) ;
#75 = MECHANICAL_DESIGN_GEOMETRIC_PRESENTATION_REPRESENTATION (  '', ( #102 ), #60 ) ;
#76 = SURFACE_STYLE_FILL_AREA ( #118 ) ;
#77 = DIRECTION ( 'NONE',  ( 0.0000000000000000000, 0.0000000000000000000, -1.000000000000000000 ) ) ;
#78 = MECHANICAL_DESIGN_GEOMETRIC_PRESENTATION_REPRESENTATION (  '', ( #50 ), #106 ) ;
#79 = CARTESIAN_POINT ( 'NONE',  ( 27.99999999999999645, 0.0000000000000000000, -1.500000000000003553 ) ) ;
#80 = PRESENTATION_STYLE_ASSIGNMENT (( #160 ) ) ;
#81 = CARTESIAN_POINT ( 'NONE',  ( 0.0000000000000000000, 0.0000000000000000000, 0.0000000000000000000 ) ) ;
#82 = CARTESIAN_POINT ( 'NONE',  ( 27.99999999999999645, 0.0000000000000000000, 0.0000000000000000000 ) ) ;
#83 = EDGE_LOOP ( 'NONE', ( #189 ) ) ;
#84 = MECHANICAL_DESIGN_GEOMETRIC_PRESENTATION_REPRESENTATION (  '', ( #192 ), #111 ) ;
#85 = PRESENTATION_LAYER_ASSIGNMENT (  '', '', ( #102 ) ) ;
#86 =( NAMED_UNIT ( * ) SI_UNIT ( $, .STERADIAN. ) SOLID_ANGLE_UNIT ( ) );
#87 = ADVANCED_FACE ( 'NONE', ( #58 ), #63, .T. ) ;
#88 = AXIS2_PLACEMENT_3D ( 'NONE', #133, #92, #193 ) ;
#89 =( LENGTH_UNIT ( ) NAMED_UNIT ( * ) SI_UNIT ( .MILLI., .METRE. ) );
#90 = AXIS2_PLACEMENT_3D ( 'NONE', #42, #179, #98 ) ;
#91 = APPLICATION_PROTOCOL_DEFINITION ( 'draft international standard', 'automotive_design', 1998, #211 ) ;
#92 = DIRECTION ( 'NONE',  ( 1.000000000000000000, 0.0000000000000000000, 0.0000000000000000000 ) ) ;
#93 = SURFACE_STYLE_FILL_AREA ( #163 ) ;
#94 = CARTESIAN_POINT ( 'NONE',  ( 27.99999999999999645, 0.0000000000000000000, 0.0000000000000000000 ) ) ;
#95 =( LENGTH_UNIT ( ) NAMED_UNIT ( * ) SI_UNIT ( .MILLI., .METRE. ) );
#96 = DIRECTION ( 'NONE',  ( 1.000000000000000000, 0.0000000000000000000, 0.0000000000000000000 ) ) ;
#97 = SURFACE_STYLE_FILL_AREA ( #6 ) ;
#98 = DIRECTION ( 'NONE',  ( 0.0000000000000000000, 0.0000000000000000000, 1.000000000000000000 ) ) ;
#99 = CARTESIAN_POINT ( 'NONE',  ( 27.99999999999999645, 0.0000000000000000000, -1.500000000000003553 ) ) ;
#100 = MECHANICAL_DESIGN_GEOMETRIC_PRESENTATION_REPRESENTATION (  '', ( #104 ), #130 ) ;
#101 = PRESENTATION_STYLE_ASSIGNMENT (( #156 ) ) ;
#102 = STYLED_ITEM ( 'NONE', ( #30 ), #186 ) ;
#103 = ORIENTED_EDGE ( 'NONE', *, *, #174, .T. ) ;
#104 = STYLED_ITEM ( 'NONE', ( #142 ), #20 ) ;
#105 = FILL_AREA_STYLE_COLOUR ( '', #72 ) ;
#106 =( GEOMETRIC_REPRESENTATION_CONTEXT ( 3 ) GLOBAL_UNCERTAINTY_ASSIGNED_CONTEXT ( ( #62 ) ) GLOBAL_UNIT_ASSIGNED_CONTEXT ( ( #110, #129, #149 ) ) REPRESENTATION_CONTEXT ( 'NONE', 'WORKASPACE' ) );
#107 = COLOUR_RGB ( '',0.7921568627450980005, 0.8196078431372548767, 0.9333333333333333481 ) ;
#108 = UNCERTAINTY_MEASURE_WITH_UNIT (LENGTH_MEASURE( 1.000000000000000082E-05 ), #197, 'distance_accuracy_value', 'NONE');
#109 = EDGE_LOOP ( 'NONE', ( #112 ) ) ;
#110 =( LENGTH_UNIT ( ) NAMED_UNIT ( * ) SI_UNIT ( .MILLI., .METRE. ) );
#111 =( GEOMETRIC_REPRESENTATION_CONTEXT ( 3 ) GLOBAL_UNCERTAINTY_ASSIGNED_CONTEXT ( ( #146 ) ) GLOBAL_UNIT_ASSIGNED_CONTEXT ( ( #40, #177, #205 ) ) REPRESENTATION_CONTEXT ( 'NONE', 'WORKASPACE' ) );
#112 = ORIENTED_EDGE ( 'NONE', *, *, #167, .T. ) ;
#113 =( GEOMETRIC_REPRESENTATION_CONTEXT ( 3 ) GLOBAL_UNCERTAINTY_ASSIGNED_CONTEXT ( ( #170 ) ) GLOBAL_UNIT_ASSIGNED_CONTEXT ( ( #95, #26, #32 ) ) REPRESENTATION_CONTEXT ( 'NONE', 'WORKASPACE' ) );
#114 = CARTESIAN_POINT ( 'NONE',  ( -9.184850993605149670E-17, 0.0000000000000000000, -1.199999999999992628 ) ) ;
#115 = EDGE_LOOP ( 'NONE', ( #61 ) ) ;
#116 = CARTESIAN_POINT ( 'NONE',  ( 0.3000000000000026534, 0.0000000000000000000, 0.0000000000000000000 ) ) ;
#117 = DIRECTION ( 'NONE',  ( 0.0000000000000000000, 0.0000000000000000000, -1.000000000000000000 ) ) ;
#118 = FILL_AREA_STYLE ('',( #66 ) ) ;
#119 = PRESENTATION_LAYER_ASSIGNMENT (  '', '', ( #192 ) ) ;
#120 = PRODUCT_DEFINITION_SHAPE ( 'NONE', 'NONE',  #16 ) ;
#121 = FILL_AREA_STYLE_COLOUR ( '', #126 ) ;
#122 =( GEOMETRIC_REPRESENTATION_CONTEXT ( 3 ) GLOBAL_UNCERTAINTY_ASSIGNED_CONTEXT ( ( #165 ) ) GLOBAL_UNIT_ASSIGNED_CONTEXT ( ( #89, #183, #1 ) ) REPRESENTATION_CONTEXT ( 'NONE', 'WORKASPACE' ) );
#123 = FACE_OUTER_BOUND ( 'NONE', #109, .T. ) ;
#124 = PRESENTATION_LAYER_ASSIGNMENT (  '', '', ( #104 ) ) ;
#125 = APPLICATION_CONTEXT ( 'automotive_design' ) ;
#126 = COLOUR_RGB ( '',0.7921568627450980005, 0.8196078431372548767, 0.9333333333333333481 ) ;
#127 = FILL_AREA_STYLE ('',( #121 ) ) ;
#128 = SURFACE_SIDE_STYLE ('',( #200 ) ) ;
#129 =( NAMED_UNIT ( * ) PLANE_ANGLE_UNIT ( ) SI_UNIT ( $, .RADIAN. ) );
#130 =( GEOMETRIC_REPRESENTATION_CONTEXT ( 3 ) GLOBAL_UNCERTAINTY_ASSIGNED_CONTEXT ( ( #108 ) ) GLOBAL_UNIT_ASSIGNED_CONTEXT ( ( #197, #18, #182 ) ) REPRESENTATION_CONTEXT ( 'NONE', 'WORKASPACE' ) );
#131 = DIRECTION ( 'NONE',  ( 1.000000000000000000, 0.0000000000000000000, 0.0000000000000000000 ) ) ;
#132 = AXIS2_PLACEMENT_3D ( 'NONE', #144, #187, #164 ) ;
#133 = CARTESIAN_POINT ( 'NONE',  ( -9.184850993605149670E-17, 0.0000000000000000000, 0.0000000000000000000 ) ) ;
#134 = EDGE_CURVE ( 'NONE', #138, #138, #151, .T. ) ;
#135 = CARTESIAN_POINT ( 'NONE',  ( 27.99999999999999645, 0.0000000000000000000, 0.0000000000000000000 ) ) ;
#136 = VERTEX_POINT ( 'NONE', #114 ) ;
#137 = FILL_AREA_STYLE ('',( #13 ) ) ;
#138 = VERTEX_POINT ( 'NONE', #99 ) ;
#139 = DIRECTION ( 'NONE',  ( 1.000000000000000000, 0.0000000000000000000, 0.0000000000000000000 ) ) ;
#140 = ADVANCED_FACE ( 'NONE', ( #37 ), #28, .F. ) ;
#141 = CLOSED_SHELL ( 'NONE', ( #46, #209, #87 ) ) ;
#142 = PRESENTATION_STYLE_ASSIGNMENT (( #175 ) ) ;
#143 = DIRECTION ( 'NONE',  ( 0.0000000000000000000, 0.0000000000000000000, -1.000000000000000000 ) ) ;
#144 = CARTESIAN_POINT ( 'NONE',  ( 0.0000000000000000000, 0.0000000000000000000, 0.0000000000000000000 ) ) ;
#145 = DIRECTION ( 'NONE',  ( 0.0000000000000000000, 0.0000000000000000000, 1.000000000000000000 ) ) ;
#146 = UNCERTAINTY_MEASURE_WITH_UNIT (LENGTH_MEASURE( 1.000000000000000082E-05 ), #40, 'distance_accuracy_value', 'NONE');
#147 = EDGE_LOOP ( 'NONE', ( #7 ) ) ;
#148 = CONICAL_SURFACE ( 'NONE', #88, 1.199999999999992628, 0.7853981633974620458 ) ;
#149 =( NAMED_UNIT ( * ) SI_UNIT ( $, .STERADIAN. ) SOLID_ANGLE_UNIT ( ) );
#150 = EDGE_CURVE ( 'NONE', #44, #44, #184, .T. ) ;
#151 = CIRCLE ( 'NONE', #74, 1.500000000000003553 ) ;
#152 = EDGE_LOOP ( 'NONE', ( #158 ) ) ;
#153 = AXIS2_PLACEMENT_3D ( 'NONE', #116, #5, #25 ) ;
#154 = SURFACE_SIDE_STYLE ('',( #65 ) ) ;
#155 = ADVANCED_FACE ( 'NONE', ( #41 ), #190, .T. ) ;
#156 = SURFACE_STYLE_USAGE ( .BOTH. , #52 ) ;
#157 = EDGE_CURVE ( 'NONE', #136, #136, #33, .T. ) ;
#158 = ORIENTED_EDGE ( 'NONE', *, *, #157, .T. ) ;
#159 = ORIENTED_EDGE ( 'NONE', *, *, #157, .F. ) ;
#160 = SURFACE_STYLE_USAGE ( .BOTH. , #128 ) ;
#161 = PRODUCT_CONTEXT ( 'NONE', #211, 'mechanical' ) ;
#162 = DIRECTION ( 'NONE',  ( 0.0000000000000000000, 0.0000000000000000000, -1.000000000000000000 ) ) ;
#163 = FILL_AREA_STYLE ('',( #188 ) ) ;
#164 = DIRECTION ( 'NONE',  ( 0.0000000000000000000, 0.0000000000000000000, 1.000000000000000000 ) ) ;
#165 = UNCERTAINTY_MEASURE_WITH_UNIT (LENGTH_MEASURE( 1.000000000000000082E-05 ), #89, 'distance_accuracy_value', 'NONE');
#166 = CARTESIAN_POINT ( 'NONE',  ( -9.184850993605149670E-17, 1.499999999999999778, 0.0000000000000000000 ) ) ;
#167 = EDGE_CURVE ( 'NONE', #55, #55, #68, .T. ) ;
#168 = SURFACE_SIDE_STYLE ('',( #93 ) ) ;
#169 =( LENGTH_UNIT ( ) NAMED_UNIT ( * ) SI_UNIT ( .MILLI., .METRE. ) );
#170 = UNCERTAINTY_MEASURE_WITH_UNIT (LENGTH_MEASURE( 1.000000000000000082E-05 ), #95, 'distance_accuracy_value', 'NONE');
#171 = AXIS2_PLACEMENT_3D ( 'NONE', #166, #10, #143 ) ;
#172 = ORIENTED_EDGE ( 'NONE', *, *, #150, .F. ) ;
#173 = DIRECTION ( 'NONE',  ( -1.000000000000000000, -0.0000000000000000000, -0.0000000000000000000 ) ) ;
#174 = EDGE_CURVE ( 'NONE', #59, #59, #39, .T. ) ;
#175 = SURFACE_STYLE_USAGE ( .BOTH. , #168 ) ;
#176 = EDGE_LOOP ( 'NONE', ( #159 ) ) ;
#177 =( NAMED_UNIT ( * ) PLANE_ANGLE_UNIT ( ) SI_UNIT ( $, .RADIAN. ) );
#178 = EDGE_LOOP ( 'NONE', ( #17 ) ) ;
#179 = DIRECTION ( 'NONE',  ( -1.000000000000000000, -0.0000000000000000000, -0.0000000000000000000 ) ) ;
#180 = AXIS2_PLACEMENT_3D ( 'NONE', #51, #36, #199 ) ;
#181 = EDGE_LOOP ( 'NONE', ( #103 ) ) ;
#182 =( NAMED_UNIT ( * ) SI_UNIT ( $, .STERADIAN. ) SOLID_ANGLE_UNIT ( ) );
#183 =( NAMED_UNIT ( * ) PLANE_ANGLE_UNIT ( ) SI_UNIT ( $, .RADIAN. ) );
#184 = CIRCLE ( 'NONE', #153, 1.500000000000003553 ) ;
#185 = COLOUR_RGB ( '',0.7921568627450980005, 0.8196078431372548767, 0.9333333333333333481 ) ;
#186 = ADVANCED_BREP_SHAPE_REPRESENTATION ( '03-1636', ( #196, #20, #24 ), #113 ) ;
#187 = DIRECTION ( 'NONE',  ( -1.000000000000000000, -0.0000000000000000000, -0.0000000000000000000 ) ) ;
#188 = FILL_AREA_STYLE_COLOUR ( '', #185 ) ;
#189 = ORIENTED_EDGE ( 'NONE', *, *, #174, .F. ) ;
#190 = PLANE ( 'NONE',  #67 ) ;
#191 = DIRECTION ( 'NONE',  ( 0.0000000000000000000, 0.0000000000000000000, 1.000000000000000000 ) ) ;
#192 = STYLED_ITEM ( 'NONE', ( #8 ), #87 ) ;
#193 = DIRECTION ( 'NONE',  ( 0.0000000000000000000, 0.0000000000000000000, -1.000000000000000000 ) ) ;
#194 = COLOUR_RGB ( '',1.000000000000000000, 1.000000000000000000, 0.0000000000000000000 ) ;
#195 = ADVANCED_FACE ( 'NONE', ( #69, #27 ), #73, .T. ) ;
#196 = MANIFOLD_SOLID_BREP ( 'ºÐÇÒ2[1]', #48 ) ;
#197 =( LENGTH_UNIT ( ) NAMED_UNIT ( * ) SI_UNIT ( .MILLI., .METRE. ) );
#198 = FACE_OUTER_BOUND ( 'NONE', #181, .T. ) ;
#199 = DIRECTION ( 'NONE',  ( 0.0000000000000000000, 0.0000000000000000000, -1.000000000000000000 ) ) ;
#200 = SURFACE_STYLE_FILL_AREA ( #137 ) ;
#201 = CARTESIAN_POINT ( 'NONE',  ( 27.99999999999999645, 0.0000000000000000000, 0.0000000000000000000 ) ) ;
#202 = PRODUCT_RELATED_PRODUCT_CATEGORY ( 'part', '', ( #203 ) ) ;
#203 = PRODUCT ( '03-1636', '03-1636', '', ( #161 ) ) ;
#204 = AXIS2_PLACEMENT_3D ( 'NONE', #94, #96, #207 ) ;
#205 =( NAMED_UNIT ( * ) SI_UNIT ( $, .STERADIAN. ) SOLID_ANGLE_UNIT ( ) );
#206 = DIRECTION ( 'NONE',  ( 1.000000000000000000, 0.0000000000000000000, 0.0000000000000000000 ) ) ;
#207 = DIRECTION ( 'NONE',  ( 0.0000000000000000000, 0.0000000000000000000, -1.000000000000000000 ) ) ;
#208 = FACE_OUTER_BOUND ( 'NONE', #54, .T. ) ;
#209 = ADVANCED_FACE ( 'NONE', ( #123, #198 ), #57, .T. ) ;
#210 = SURFACE_SIDE_STYLE ('',( #76 ) ) ;
#211 = APPLICATION_CONTEXT ( 'automotive_design' ) ;
#212 = CARTESIAN_POINT ( 'NONE',  ( -939.0000000000000000, 0.0000000000000000000, 0.0000000000000000000 ) ) ;
#213 = PRODUCT_DEFINITION_FORMATION_WITH_SPECIFIED_SOURCE ( 'ANY', '', #203, .NOT_KNOWN. ) ;
ENDSEC;
END-ISO-10303-21;
