ISO-10303-21;
HEADER;
FILE_DESCRIPTION (( 'STEP AP214' ),
    '1' );
FILE_NAME ('03-1638.STEP',
    '2021-10-01T05:05:20',
    ( 'USER' ),
    ( '' ),
    'SwSTEP 2.0',
    'SolidWorks 2018',
    '' );
FILE_SCHEMA (( 'AUTOMOTIVE_DESIGN' ));
ENDSEC;

DATA;
#1 = COLOUR_RGB ( '',1.000000000000000000, 1.000000000000000000, 0.0000000000000000000 ) ;
#2 = CONICAL_SURFACE ( 'NONE', #98, 1.279999999999989369, 0.7853981633974506105 ) ;
#3 =( GEOMETRIC_REPRESENTATION_CONTEXT ( 3 ) GLOBAL_UNCERTAINTY_ASSIGNED_CONTEXT ( ( #132 ) ) GLOBAL_UNIT_ASSIGNED_CONTEXT ( ( #29, #52, #150 ) ) REPRESENTATION_CONTEXT ( 'NONE', 'WORKASPACE' ) );
#4 = EDGE_LOOP ( 'NONE', ( #157 ) ) ;
#5 = CARTESIAN_POINT ( 'NONE',  ( 29.00000000000000355, 0.0000000000000000000, 0.0000000000000000000 ) ) ;
#6 = SHAPE_DEFINITION_REPRESENTATION ( #125, #142 ) ;
#7 = AXIS2_PLACEMENT_3D ( 'NONE', #36, #156, #172 ) ;
#8 = ORIENTED_EDGE ( 'NONE', *, *, #82, .F. ) ;
#9 = CARTESIAN_POINT ( 'NONE',  ( -9.797174393178824918E-17, 0.0000000000000000000, 0.0000000000000000000 ) ) ;
#10 = APPLICATION_CONTEXT ( 'automotive_design' ) ;
#11 = DIRECTION ( 'NONE',  ( 0.0000000000000000000, 0.0000000000000000000, -1.000000000000000000 ) ) ;
#12 = CARTESIAN_POINT ( 'NONE',  ( -9.797174393178824918E-17, 0.0000000000000000000, 0.0000000000000000000 ) ) ;
#13 = CARTESIAN_POINT ( 'NONE',  ( 0.0000000000000000000, 0.0000000000000000000, 0.0000000000000000000 ) ) ;
#14 = PLANE ( 'NONE',  #139 ) ;
#15 = DIRECTION ( 'NONE',  ( 1.000000000000000000, 0.0000000000000000000, 0.0000000000000000000 ) ) ;
#16 = PRESENTATION_LAYER_ASSIGNMENT (  '', '', ( #131 ) ) ;
#17 =( NAMED_UNIT ( * ) SI_UNIT ( $, .STERADIAN. ) SOLID_ANGLE_UNIT ( ) );
#18 = ADVANCED_FACE ( 'NONE', ( #35, #200 ), #173, .T. ) ;
#19 = EDGE_LOOP ( 'NONE', ( #111 ) ) ;
#20 = FILL_AREA_STYLE_COLOUR ( '', #1 ) ;
#21 = PRODUCT_DEFINITION_CONTEXT ( 'detailed design', #10, 'design' ) ;
#22 = EDGE_LOOP ( 'NONE', ( #65 ) ) ;
#23 = SURFACE_STYLE_FILL_AREA ( #152 ) ;
#24 =( LENGTH_UNIT ( ) NAMED_UNIT ( * ) SI_UNIT ( .MILLI., .METRE. ) );
#25 = PRESENTATION_STYLE_ASSIGNMENT (( #192 ) ) ;
#26 = EDGE_LOOP ( 'NONE', ( #81 ) ) ;
#27 = CARTESIAN_POINT ( 'NONE',  ( -935.0000000000000000, 0.0000000000000000000, 0.0000000000000000000 ) ) ;
#28 = SURFACE_STYLE_USAGE ( .BOTH. , #174 ) ;
#29 =( LENGTH_UNIT ( ) NAMED_UNIT ( * ) SI_UNIT ( .MILLI., .METRE. ) );
#30 = ORIENTED_EDGE ( 'NONE', *, *, #213, .F. ) ;
#31 = DIRECTION ( 'NONE',  ( 0.0000000000000000000, 0.0000000000000000000, 1.000000000000000000 ) ) ;
#32 = DIRECTION ( 'NONE',  ( 0.0000000000000000000, 0.0000000000000000000, -1.000000000000000000 ) ) ;
#33 = COLOUR_RGB ( '',0.7921568627450980005, 0.8196078431372548767, 0.9333333333333333481 ) ;
#34 = DIRECTION ( 'NONE',  ( 1.000000000000000000, 0.0000000000000000000, 0.0000000000000000000 ) ) ;
#35 = FACE_OUTER_BOUND ( 'NONE', #4, .T. ) ;
#36 = CARTESIAN_POINT ( 'NONE',  ( 64.33725830020303249, 0.0000000000000000000, 0.0000000000000000000 ) ) ;
#37 = EDGE_CURVE ( 'NONE', #167, #167, #91, .T. ) ;
#38 =( NAMED_UNIT ( * ) PLANE_ANGLE_UNIT ( ) SI_UNIT ( $, .RADIAN. ) );
#39 = PRESENTATION_LAYER_ASSIGNMENT (  '', '', ( #67 ) ) ;
#40 =( NAMED_UNIT ( * ) SI_UNIT ( $, .STERADIAN. ) SOLID_ANGLE_UNIT ( ) );
#41 = EDGE_LOOP ( 'NONE', ( #30 ) ) ;
#42 = APPLICATION_PROTOCOL_DEFINITION ( 'draft international standard', 'automotive_design', 1998, #10 ) ;
#43 = SURFACE_STYLE_FILL_AREA ( #49 ) ;
#44 = PRESENTATION_STYLE_ASSIGNMENT (( #54 ) ) ;
#45 = DIRECTION ( 'NONE',  ( -1.000000000000000000, -0.0000000000000000000, -0.0000000000000000000 ) ) ;
#46 = SURFACE_SIDE_STYLE ('',( #23 ) ) ;
#47 = EDGE_CURVE ( 'NONE', #106, #106, #130, .T. ) ;
#48 = MECHANICAL_DESIGN_GEOMETRIC_PRESENTATION_REPRESENTATION (  '', ( #159 ), #154 ) ;
#49 = FILL_AREA_STYLE ('',( #72 ) ) ;
#50 = CIRCLE ( 'NONE', #138, 1.279999999999989369 ) ;
#51 = DIRECTION ( 'NONE',  ( 0.0000000000000000000, 0.0000000000000000000, -1.000000000000000000 ) ) ;
#52 =( NAMED_UNIT ( * ) PLANE_ANGLE_UNIT ( ) SI_UNIT ( $, .RADIAN. ) );
#53 = DIRECTION ( 'NONE',  ( 0.0000000000000000000, 0.0000000000000000000, -1.000000000000000000 ) ) ;
#54 = SURFACE_STYLE_USAGE ( .BOTH. , #158 ) ;
#55 =( NAMED_UNIT ( * ) PLANE_ANGLE_UNIT ( ) SI_UNIT ( $, .RADIAN. ) );
#56 = PLANE ( 'NONE',  #112 ) ;
#57 = ADVANCED_FACE ( 'NONE', ( #207 ), #56, .F. ) ;
#58 = CLOSED_SHELL ( 'NONE', ( #18, #105, #78, #102 ) ) ;
#59 = PRODUCT_RELATED_PRODUCT_CATEGORY ( 'part', '', ( #188 ) ) ;
#60 = STYLED_ITEM ( 'NONE', ( #25 ), #187 ) ;
#61 = FACE_BOUND ( 'NONE', #108, .T. ) ;
#62 = DIRECTION ( 'NONE',  ( 0.0000000000000000000, 0.0000000000000000000, 1.000000000000000000 ) ) ;
#63 = UNCERTAINTY_MEASURE_WITH_UNIT (LENGTH_MEASURE( 1.000000000000000082E-05 ), #96, 'distance_accuracy_value', 'NONE');
#64 = COLOUR_RGB ( '',0.7921568627450980005, 0.8196078431372548767, 0.9333333333333333481 ) ;
#65 = ORIENTED_EDGE ( 'NONE', *, *, #37, .T. ) ;
#66 = EDGE_CURVE ( 'NONE', #185, #185, #95, .T. ) ;
#67 = STYLED_ITEM ( 'NONE', ( #178 ), #84 ) ;
#68 = FACE_OUTER_BOUND ( 'NONE', #151, .T. ) ;
#69 = DIRECTION ( 'NONE',  ( 1.000000000000000000, 0.0000000000000000000, 0.0000000000000000000 ) ) ;
#70 =( LENGTH_UNIT ( ) NAMED_UNIT ( * ) SI_UNIT ( .MILLI., .METRE. ) );
#71 = CARTESIAN_POINT ( 'NONE',  ( 29.00000000000000355, 0.0000000000000000000, 0.0000000000000000000 ) ) ;
#72 = FILL_AREA_STYLE_COLOUR ( '', #64 ) ;
#73 = PRODUCT_DEFINITION_FORMATION_WITH_SPECIFIED_SOURCE ( 'ANY', '', #188, .NOT_KNOWN. ) ;
#74 = AXIS2_PLACEMENT_3D ( 'NONE', #137, #45, #196 ) ;
#75 = FACE_OUTER_BOUND ( 'NONE', #193, .T. ) ;
#76 = DIRECTION ( 'NONE',  ( 0.0000000000000000000, 0.0000000000000000000, -1.000000000000000000 ) ) ;
#77 = CARTESIAN_POINT ( 'NONE',  ( 29.00000000000000355, 0.0000000000000000000, -1.600000000000004086 ) ) ;
#78 = ADVANCED_FACE ( 'NONE', ( #68, #61 ), #2, .T. ) ;
#79 =( NAMED_UNIT ( * ) PLANE_ANGLE_UNIT ( ) SI_UNIT ( $, .RADIAN. ) );
#80 =( LENGTH_UNIT ( ) NAMED_UNIT ( * ) SI_UNIT ( .MILLI., .METRE. ) );
#81 = ORIENTED_EDGE ( 'NONE', *, *, #47, .T. ) ;
#82 = EDGE_CURVE ( 'NONE', #146, #146, #50, .T. ) ;
#83 = FACE_OUTER_BOUND ( 'NONE', #22, .T. ) ;
#84 = MANIFOLD_SOLID_BREP ( 'ºÐÇÒ2[2]', #186 ) ;
#85 = SURFACE_STYLE_FILL_AREA ( #120 ) ;
#86 = ORIENTED_EDGE ( 'NONE', *, *, #66, .F. ) ;
#87 = PRODUCT_DEFINITION ( 'UNKNOWN', '', #73, #21 ) ;
#88 = AXIS2_PLACEMENT_3D ( 'NONE', #5, #135, #76 ) ;
#89 =( NAMED_UNIT ( * ) SI_UNIT ( $, .STERADIAN. ) SOLID_ANGLE_UNIT ( ) );
#90 =( NAMED_UNIT ( * ) SI_UNIT ( $, .STERADIAN. ) SOLID_ANGLE_UNIT ( ) );
#91 = CIRCLE ( 'NONE', #7, 1.600000000000007860 ) ;
#92 = FILL_AREA_STYLE ('',( #198 ) ) ;
#93 = CARTESIAN_POINT ( 'NONE',  ( 64.33725830020303249, 0.0000000000000000000, 1.600000000000007860 ) ) ;
#94 = DIRECTION ( 'NONE',  ( -1.000000000000000000, -0.0000000000000000000, -0.0000000000000000000 ) ) ;
#95 = CIRCLE ( 'NONE', #161, 1.600000000000004086 ) ;
#96 =( LENGTH_UNIT ( ) NAMED_UNIT ( * ) SI_UNIT ( .MILLI., .METRE. ) );
#97 =( GEOMETRIC_REPRESENTATION_CONTEXT ( 3 ) GLOBAL_UNCERTAINTY_ASSIGNED_CONTEXT ( ( #129 ) ) GLOBAL_UNIT_ASSIGNED_CONTEXT ( ( #184, #79, #40 ) ) REPRESENTATION_CONTEXT ( 'NONE', 'WORKASPACE' ) );
#98 = AXIS2_PLACEMENT_3D ( 'NONE', #9, #15, #201 ) ;
#99 = FACE_OUTER_BOUND ( 'NONE', #19, .T. ) ;
#100 = DIRECTION ( 'NONE',  ( 0.0000000000000000000, 0.0000000000000000000, -1.000000000000000000 ) ) ;
#101 = VERTEX_POINT ( 'NONE', #77 ) ;
#102 = ADVANCED_FACE ( 'NONE', ( #99 ), #14, .T. ) ;
#103 =( NAMED_UNIT ( * ) PLANE_ANGLE_UNIT ( ) SI_UNIT ( $, .RADIAN. ) );
#104 = PLANE ( 'NONE',  #208 ) ;
#105 = ADVANCED_FACE ( 'NONE', ( #128 ), #104, .F. ) ;
#106 = VERTEX_POINT ( 'NONE', #121 ) ;
#107 = DIRECTION ( 'NONE',  ( 0.0000000000000000000, 0.0000000000000000000, -1.000000000000000000 ) ) ;
#108 = EDGE_LOOP ( 'NONE', ( #8 ) ) ;
#109 =( GEOMETRIC_REPRESENTATION_CONTEXT ( 3 ) GLOBAL_UNCERTAINTY_ASSIGNED_CONTEXT ( ( #180 ) ) GLOBAL_UNIT_ASSIGNED_CONTEXT ( ( #70, #181, #145 ) ) REPRESENTATION_CONTEXT ( 'NONE', 'WORKASPACE' ) );
#110 = STYLED_ITEM ( 'NONE', ( #210 ), #142 ) ;
#111 = ORIENTED_EDGE ( 'NONE', *, *, #213, .T. ) ;
#112 = AXIS2_PLACEMENT_3D ( 'NONE', #71, #211, #51 ) ;
#113 = MECHANICAL_DESIGN_GEOMETRIC_PRESENTATION_REPRESENTATION (  '', ( #60 ), #199 ) ;
#114 = SURFACE_STYLE_FILL_AREA ( #140 ) ;
#115 = DIRECTION ( 'NONE',  ( 1.000000000000000000, 0.0000000000000000000, 0.0000000000000000000 ) ) ;
#116 = DIRECTION ( 'NONE',  ( 0.0000000000000000000, 0.0000000000000000000, 1.000000000000000000 ) ) ;
#117 = ORIENTED_EDGE ( 'NONE', *, *, #37, .F. ) ;
#118 = CARTESIAN_POINT ( 'NONE',  ( 0.3200000000000131073, 0.0000000000000000000, -1.600000000000004086 ) ) ;
#119 = APPLICATION_PROTOCOL_DEFINITION ( 'draft international standard', 'automotive_design', 1998, #195 ) ;
#120 = FILL_AREA_STYLE ('',( #153 ) ) ;
#121 = CARTESIAN_POINT ( 'NONE',  ( 29.00000000000000355, 0.0000000000000000000, -1.600000000000004086 ) ) ;
#122 = COLOUR_RGB ( '',0.7921568627450980005, 0.8196078431372548767, 0.9333333333333333481 ) ;
#123 = CARTESIAN_POINT ( 'NONE',  ( 29.00000000000000355, 0.0000000000000000000, 0.0000000000000000000 ) ) ;
#124 = CARTESIAN_POINT ( 'NONE',  ( 0.0000000000000000000, 0.0000000000000000000, 0.0000000000000000000 ) ) ;
#125 = PRODUCT_DEFINITION_SHAPE ( 'NONE', 'NONE',  #87 ) ;
#126 = DIRECTION ( 'NONE',  ( -1.000000000000000000, -0.0000000000000000000, -0.0000000000000000000 ) ) ;
#127 = CYLINDRICAL_SURFACE ( 'NONE', #74, 1.600000000000004086 ) ;
#128 = FACE_OUTER_BOUND ( 'NONE', #163, .T. ) ;
#129 = UNCERTAINTY_MEASURE_WITH_UNIT (LENGTH_MEASURE( 1.000000000000000082E-05 ), #184, 'distance_accuracy_value', 'NONE');
#130 = CIRCLE ( 'NONE', #206, 1.600000000000004086 ) ;
#131 = STYLED_ITEM ( 'NONE', ( #191 ), #170 ) ;
#132 = UNCERTAINTY_MEASURE_WITH_UNIT (LENGTH_MEASURE( 1.000000000000000082E-05 ), #29, 'distance_accuracy_value', 'NONE');
#133 = FILL_AREA_STYLE_COLOUR ( '', #203 ) ;
#134 = PRESENTATION_LAYER_ASSIGNMENT (  '', '', ( #159 ) ) ;
#135 = DIRECTION ( 'NONE',  ( 1.000000000000000000, 0.0000000000000000000, 0.0000000000000000000 ) ) ;
#136 = FACE_OUTER_BOUND ( 'NONE', #26, .T. ) ;
#137 = CARTESIAN_POINT ( 'NONE',  ( 0.0000000000000000000, 0.0000000000000000000, 0.0000000000000000000 ) ) ;
#138 = AXIS2_PLACEMENT_3D ( 'NONE', #12, #126, #53 ) ;
#139 = AXIS2_PLACEMENT_3D ( 'NONE', #143, #115, #107 ) ;
#140 = FILL_AREA_STYLE ('',( #133 ) ) ;
#141 = CARTESIAN_POINT ( 'NONE',  ( 0.3200000000000131073, 0.0000000000000000000, 0.0000000000000000000 ) ) ;
#142 = ADVANCED_BREP_SHAPE_REPRESENTATION ( '03-1638', ( #187, #84, #164 ), #97 ) ;
#143 = CARTESIAN_POINT ( 'NONE',  ( 29.00000000000000355, 0.0000000000000000000, 0.0000000000000000000 ) ) ;
#144 = PRESENTATION_LAYER_ASSIGNMENT (  '', '', ( #110 ) ) ;
#145 =( NAMED_UNIT ( * ) SI_UNIT ( $, .STERADIAN. ) SOLID_ANGLE_UNIT ( ) );
#146 = VERTEX_POINT ( 'NONE', #183 ) ;
#147 = MECHANICAL_DESIGN_GEOMETRIC_PRESENTATION_REPRESENTATION (  '', ( #131 ), #3 ) ;
#148 = SURFACE_STYLE_FILL_AREA ( #92 ) ;
#149 =( GEOMETRIC_REPRESENTATION_CONTEXT ( 3 ) GLOBAL_UNCERTAINTY_ASSIGNED_CONTEXT ( ( #165 ) ) GLOBAL_UNIT_ASSIGNED_CONTEXT ( ( #24, #38, #89 ) ) REPRESENTATION_CONTEXT ( 'NONE', 'WORKASPACE' ) );
#150 =( NAMED_UNIT ( * ) SI_UNIT ( $, .STERADIAN. ) SOLID_ANGLE_UNIT ( ) );
#151 = EDGE_LOOP ( 'NONE', ( #86 ) ) ;
#152 = FILL_AREA_STYLE ('',( #20 ) ) ;
#153 = FILL_AREA_STYLE_COLOUR ( '', #33 ) ;
#154 =( GEOMETRIC_REPRESENTATION_CONTEXT ( 3 ) GLOBAL_UNCERTAINTY_ASSIGNED_CONTEXT ( ( #176 ) ) GLOBAL_UNIT_ASSIGNED_CONTEXT ( ( #80, #103, #17 ) ) REPRESENTATION_CONTEXT ( 'NONE', 'WORKASPACE' ) );
#155 = SURFACE_SIDE_STYLE ('',( #85 ) ) ;
#156 = DIRECTION ( 'NONE',  ( -1.000000000000000000, -0.0000000000000000000, -0.0000000000000000000 ) ) ;
#157 = ORIENTED_EDGE ( 'NONE', *, *, #66, .T. ) ;
#158 = SURFACE_SIDE_STYLE ('',( #114 ) ) ;
#159 = STYLED_ITEM ( 'NONE', ( #44 ), #171 ) ;
#160 = DIRECTION ( 'NONE',  ( 1.000000000000000000, 0.0000000000000000000, 0.0000000000000000000 ) ) ;
#161 = AXIS2_PLACEMENT_3D ( 'NONE', #141, #175, #100 ) ;
#162 = PRODUCT_CONTEXT ( 'NONE', #195, 'mechanical' ) ;
#163 = EDGE_LOOP ( 'NONE', ( #168 ) ) ;
#164 = AXIS2_PLACEMENT_3D ( 'NONE', #13, #62, #160 ) ;
#165 = UNCERTAINTY_MEASURE_WITH_UNIT (LENGTH_MEASURE( 1.000000000000000082E-05 ), #24, 'distance_accuracy_value', 'NONE');
#166 = MECHANICAL_DESIGN_GEOMETRIC_PRESENTATION_REPRESENTATION (  '', ( #110 ), #109 ) ;
#167 = VERTEX_POINT ( 'NONE', #93 ) ;
#168 = ORIENTED_EDGE ( 'NONE', *, *, #82, .T. ) ;
#169 = SURFACE_STYLE_USAGE ( .BOTH. , #194 ) ;
#170 = ADVANCED_FACE ( 'NONE', ( #75 ), #197, .T. ) ;
#171 = ADVANCED_FACE ( 'NONE', ( #136, #83 ), #127, .T. ) ;
#172 = DIRECTION ( 'NONE',  ( 0.0000000000000000000, 0.0000000000000000000, 1.000000000000000000 ) ) ;
#173 = CYLINDRICAL_SURFACE ( 'NONE', #190, 1.600000000000004086 ) ;
#174 = SURFACE_SIDE_STYLE ('',( #148 ) ) ;
#175 = DIRECTION ( 'NONE',  ( 1.000000000000000000, 0.0000000000000000000, 0.0000000000000000000 ) ) ;
#176 = UNCERTAINTY_MEASURE_WITH_UNIT (LENGTH_MEASURE( 1.000000000000000082E-05 ), #80, 'distance_accuracy_value', 'NONE');
#177 = PRESENTATION_LAYER_ASSIGNMENT (  '', '', ( #60 ) ) ;
#178 = PRESENTATION_STYLE_ASSIGNMENT (( #28 ) ) ;
#179 = MECHANICAL_DESIGN_GEOMETRIC_PRESENTATION_REPRESENTATION (  '', ( #67 ), #149 ) ;
#180 = UNCERTAINTY_MEASURE_WITH_UNIT (LENGTH_MEASURE( 1.000000000000000082E-05 ), #70, 'distance_accuracy_value', 'NONE');
#181 =( NAMED_UNIT ( * ) PLANE_ANGLE_UNIT ( ) SI_UNIT ( $, .RADIAN. ) );
#182 = CARTESIAN_POINT ( 'NONE',  ( -9.797174393178824918E-17, 1.600000000000000089, 0.0000000000000000000 ) ) ;
#183 = CARTESIAN_POINT ( 'NONE',  ( -9.797174393178824918E-17, 0.0000000000000000000, -1.279999999999989369 ) ) ;
#184 =( LENGTH_UNIT ( ) NAMED_UNIT ( * ) SI_UNIT ( .MILLI., .METRE. ) );
#185 = VERTEX_POINT ( 'NONE', #118 ) ;
#186 = CLOSED_SHELL ( 'NONE', ( #57, #171, #170 ) ) ;
#187 = MANIFOLD_SOLID_BREP ( 'ºÐÇÒ2[1]', #58 ) ;
#188 = PRODUCT ( '03-1638', '03-1638', '', ( #162 ) ) ;
#189 = ORIENTED_EDGE ( 'NONE', *, *, #47, .F. ) ;
#190 = AXIS2_PLACEMENT_3D ( 'NONE', #124, #94, #116 ) ;
#191 = PRESENTATION_STYLE_ASSIGNMENT (( #209 ) ) ;
#192 = SURFACE_STYLE_USAGE ( .BOTH. , #155 ) ;
#193 = EDGE_LOOP ( 'NONE', ( #117 ) ) ;
#194 = SURFACE_SIDE_STYLE ('',( #43 ) ) ;
#195 = APPLICATION_CONTEXT ( 'automotive_design' ) ;
#196 = DIRECTION ( 'NONE',  ( 0.0000000000000000000, 0.0000000000000000000, 1.000000000000000000 ) ) ;
#197 = CONICAL_SURFACE ( 'NONE', #212, 2414.213562373059176, 1.178097245096167311 ) ;
#198 = FILL_AREA_STYLE_COLOUR ( '', #122 ) ;
#199 =( GEOMETRIC_REPRESENTATION_CONTEXT ( 3 ) GLOBAL_UNCERTAINTY_ASSIGNED_CONTEXT ( ( #63 ) ) GLOBAL_UNIT_ASSIGNED_CONTEXT ( ( #96, #55, #90 ) ) REPRESENTATION_CONTEXT ( 'NONE', 'WORKASPACE' ) );
#200 = FACE_OUTER_BOUND ( 'NONE', #41, .T. ) ;
#201 = DIRECTION ( 'NONE',  ( 0.0000000000000000000, 0.0000000000000000000, -1.000000000000000000 ) ) ;
#202 = DIRECTION ( 'NONE',  ( -1.000000000000000000, -0.0000000000000000000, -0.0000000000000000000 ) ) ;
#203 = COLOUR_RGB ( '',1.000000000000000000, 1.000000000000000000, 0.0000000000000000000 ) ;
#204 = CIRCLE ( 'NONE', #88, 1.600000000000004086 ) ;
#205 = EDGE_LOOP ( 'NONE', ( #189 ) ) ;
#206 = AXIS2_PLACEMENT_3D ( 'NONE', #123, #69, #11 ) ;
#207 = FACE_OUTER_BOUND ( 'NONE', #205, .T. ) ;
#208 = AXIS2_PLACEMENT_3D ( 'NONE', #182, #34, #32 ) ;
#209 = SURFACE_STYLE_USAGE ( .BOTH. , #46 ) ;
#210 = PRESENTATION_STYLE_ASSIGNMENT (( #169 ) ) ;
#211 = DIRECTION ( 'NONE',  ( 1.000000000000000000, 0.0000000000000000000, 0.0000000000000000000 ) ) ;
#212 = AXIS2_PLACEMENT_3D ( 'NONE', #27, #202, #31 ) ;
#213 = EDGE_CURVE ( 'NONE', #101, #101, #204, .T. ) ;
ENDSEC;
END-ISO-10303-21;
