ISO-10303-21;
HEADER;
FILE_DESCRIPTION (( 'STEP AP214' ),
    '1' );
FILE_NAME ('03-1640.STEP',
    '2021-10-01T05:05:47',
    ( 'USER' ),
    ( '' ),
    'SwSTEP 2.0',
    'SolidWorks 2018',
    '' );
FILE_SCHEMA (( 'AUTOMOTIVE_DESIGN' ));
ENDSEC;

DATA;
#1 =( GEOMETRIC_REPRESENTATION_CONTEXT ( 3 ) GLOBAL_UNCERTAINTY_ASSIGNED_CONTEXT ( ( #96 ) ) GLOBAL_UNIT_ASSIGNED_CONTEXT ( ( #102, #61, #199 ) ) REPRESENTATION_CONTEXT ( 'NONE', 'WORKASPACE' ) );
#2 = EDGE_LOOP ( 'NONE', ( #47 ) ) ;
#3 = DIRECTION ( 'NONE',  ( -1.000000000000000000, -0.0000000000000000000, -0.0000000000000000000 ) ) ;
#4 = DIRECTION ( 'NONE',  ( 0.0000000000000000000, 0.0000000000000000000, 1.000000000000000000 ) ) ;
#5 = DIRECTION ( 'NONE',  ( 0.0000000000000000000, 0.0000000000000000000, -1.000000000000000000 ) ) ;
#6 = AXIS2_PLACEMENT_3D ( 'NONE', #106, #213, #57 ) ;
#7 = PRESENTATION_LAYER_ASSIGNMENT (  '', '', ( #60 ) ) ;
#8 = CIRCLE ( 'NONE', #193, 1.700000000000003952 ) ;
#9 = EDGE_LOOP ( 'NONE', ( #37 ) ) ;
#10 = ORIENTED_EDGE ( 'NONE', *, *, #167, .F. ) ;
#11 = ORIENTED_EDGE ( 'NONE', *, *, #123, .F. ) ;
#12 = CIRCLE ( 'NONE', #151, 1.700000000000003952 ) ;
#13 = SURFACE_SIDE_STYLE ('',( #27 ) ) ;
#14 =( LENGTH_UNIT ( ) NAMED_UNIT ( * ) SI_UNIT ( .MILLI., .METRE. ) );
#15 = DIRECTION ( 'NONE',  ( 0.0000000000000000000, 0.0000000000000000000, -1.000000000000000000 ) ) ;
#16 = EDGE_LOOP ( 'NONE', ( #119 ) ) ;
#17 = APPLICATION_PROTOCOL_DEFINITION ( 'draft international standard', 'automotive_design', 1998, #170 ) ;
#18 = CARTESIAN_POINT ( 'NONE',  ( -1.040949779275250017E-16, 0.0000000000000000000, -1.360000000000000098 ) ) ;
#19 = CARTESIAN_POINT ( 'NONE',  ( -1.040949779275250017E-16, 0.0000000000000000000, 0.0000000000000000000 ) ) ;
#20 = AXIS2_PLACEMENT_3D ( 'NONE', #205, #3, #78 ) ;
#21 = DIRECTION ( 'NONE',  ( -1.000000000000000000, -0.0000000000000000000, -0.0000000000000000000 ) ) ;
#22 = PRESENTATION_STYLE_ASSIGNMENT (( #38 ) ) ;
#23 = EDGE_LOOP ( 'NONE', ( #127 ) ) ;
#24 = MECHANICAL_DESIGN_GEOMETRIC_PRESENTATION_REPRESENTATION (  '', ( #60 ), #33 ) ;
#25 = SURFACE_STYLE_USAGE ( .BOTH. , #192 ) ;
#26 = VERTEX_POINT ( 'NONE', #122 ) ;
#27 = SURFACE_STYLE_FILL_AREA ( #135 ) ;
#28 = FILL_AREA_STYLE_COLOUR ( '', #115 ) ;
#29 = ADVANCED_FACE ( 'NONE', ( #51, #140 ), #112, .T. ) ;
#30 = AXIS2_PLACEMENT_3D ( 'NONE', #105, #44, #203 ) ;
#31 = PRODUCT_DEFINITION_CONTEXT ( 'detailed design', #81, 'design' ) ;
#32 = PLANE ( 'NONE',  #92 ) ;
#33 =( GEOMETRIC_REPRESENTATION_CONTEXT ( 3 ) GLOBAL_UNCERTAINTY_ASSIGNED_CONTEXT ( ( #195 ) ) GLOBAL_UNIT_ASSIGNED_CONTEXT ( ( #145, #186, #93 ) ) REPRESENTATION_CONTEXT ( 'NONE', 'WORKASPACE' ) );
#34 = STYLED_ITEM ( 'NONE', ( #147 ), #131 ) ;
#35 = DIRECTION ( 'NONE',  ( 0.0000000000000000000, 0.0000000000000000000, -1.000000000000000000 ) ) ;
#36 = FACE_OUTER_BOUND ( 'NONE', #178, .T. ) ;
#37 = ORIENTED_EDGE ( 'NONE', *, *, #134, .T. ) ;
#38 = SURFACE_STYLE_USAGE ( .BOTH. , #181 ) ;
#39 = CARTESIAN_POINT ( 'NONE',  ( 31.00000000000000711, 0.0000000000000000000, 0.0000000000000000000 ) ) ;
#40 = DIRECTION ( 'NONE',  ( 0.0000000000000000000, 0.0000000000000000000, -1.000000000000000000 ) ) ;
#41 = DIRECTION ( 'NONE',  ( 1.000000000000000000, 0.0000000000000000000, 0.0000000000000000000 ) ) ;
#42 = ORIENTED_EDGE ( 'NONE', *, *, #167, .T. ) ;
#43 = CARTESIAN_POINT ( 'NONE',  ( 0.0000000000000000000, 0.0000000000000000000, 0.0000000000000000000 ) ) ;
#44 = DIRECTION ( 'NONE',  ( 0.0000000000000000000, 0.0000000000000000000, 1.000000000000000000 ) ) ;
#45 = MECHANICAL_DESIGN_GEOMETRIC_PRESENTATION_REPRESENTATION (  '', ( #206 ), #117 ) ;
#46 = DIRECTION ( 'NONE',  ( 1.000000000000000000, 0.0000000000000000000, 0.0000000000000000000 ) ) ;
#47 = ORIENTED_EDGE ( 'NONE', *, *, #157, .T. ) ;
#48 = ORIENTED_EDGE ( 'NONE', *, *, #157, .F. ) ;
#49 = DIRECTION ( 'NONE',  ( 0.0000000000000000000, 0.0000000000000000000, -1.000000000000000000 ) ) ;
#50 = ADVANCED_FACE ( 'NONE', ( #99 ), #32, .T. ) ;
#51 = FACE_OUTER_BOUND ( 'NONE', #85, .T. ) ;
#52 = STYLED_ITEM ( 'NONE', ( #148 ), #87 ) ;
#53 = MECHANICAL_DESIGN_GEOMETRIC_PRESENTATION_REPRESENTATION (  '', ( #52 ), #1 ) ;
#54 = FILL_AREA_STYLE_COLOUR ( '', #166 ) ;
#55 = DIRECTION ( 'NONE',  ( -1.000000000000000000, -0.0000000000000000000, -0.0000000000000000000 ) ) ;
#56 = DIRECTION ( 'NONE',  ( 1.000000000000000000, 0.0000000000000000000, 0.0000000000000000000 ) ) ;
#57 = DIRECTION ( 'NONE',  ( 0.0000000000000000000, 0.0000000000000000000, -1.000000000000000000 ) ) ;
#58 = DIRECTION ( 'NONE',  ( 0.0000000000000000000, 0.0000000000000000000, 1.000000000000000000 ) ) ;
#59 = SURFACE_STYLE_FILL_AREA ( #180 ) ;
#60 = STYLED_ITEM ( 'NONE', ( #177 ), #163 ) ;
#61 =( NAMED_UNIT ( * ) PLANE_ANGLE_UNIT ( ) SI_UNIT ( $, .RADIAN. ) );
#62 = SURFACE_SIDE_STYLE ('',( #184 ) ) ;
#63 = CIRCLE ( 'NONE', #143, 1.700000000000008393 ) ;
#64 = PRESENTATION_LAYER_ASSIGNMENT (  '', '', ( #206 ) ) ;
#65 = CLOSED_SHELL ( 'NONE', ( #173, #84, #29, #50 ) ) ;
#66 = STYLED_ITEM ( 'NONE', ( #22 ), #70 ) ;
#67 = CLOSED_SHELL ( 'NONE', ( #188, #110, #163 ) ) ;
#68 = PRESENTATION_LAYER_ASSIGNMENT (  '', '', ( #34 ) ) ;
#69 = PLANE ( 'NONE',  #174 ) ;
#70 = MANIFOLD_SOLID_BREP ( 'ºÐÇÒ2[1]', #65 ) ;
#71 = VERTEX_POINT ( 'NONE', #172 ) ;
#72 = ORIENTED_EDGE ( 'NONE', *, *, #134, .F. ) ;
#73 = DIRECTION ( 'NONE',  ( 0.0000000000000000000, 0.0000000000000000000, -1.000000000000000000 ) ) ;
#74 = AXIS2_PLACEMENT_3D ( 'NONE', #210, #136, #35 ) ;
#75 = SURFACE_SIDE_STYLE ('',( #183 ) ) ;
#76 = DIRECTION ( 'NONE',  ( 1.000000000000000000, 0.0000000000000000000, 0.0000000000000000000 ) ) ;
#77 = FACE_OUTER_BOUND ( 'NONE', #23, .T. ) ;
#78 = DIRECTION ( 'NONE',  ( 0.0000000000000000000, 0.0000000000000000000, 1.000000000000000000 ) ) ;
#79 = EDGE_LOOP ( 'NONE', ( #72 ) ) ;
#80 = PRESENTATION_LAYER_ASSIGNMENT (  '', '', ( #66 ) ) ;
#81 = APPLICATION_CONTEXT ( 'automotive_design' ) ;
#82 = DIRECTION ( 'NONE',  ( 0.0000000000000000000, 0.0000000000000000000, -1.000000000000000000 ) ) ;
#83 = CYLINDRICAL_SURFACE ( 'NONE', #175, 1.700000000000003952 ) ;
#84 = ADVANCED_FACE ( 'NONE', ( #77 ), #69, .F. ) ;
#85 = EDGE_LOOP ( 'NONE', ( #10 ) ) ;
#86 = PRESENTATION_LAYER_ASSIGNMENT (  '', '', ( #52 ) ) ;
#87 = MANIFOLD_SOLID_BREP ( 'ºÐÇÒ2[2]', #67 ) ;
#88 = FILL_AREA_STYLE ('',( #144 ) ) ;
#89 =( LENGTH_UNIT ( ) NAMED_UNIT ( * ) SI_UNIT ( .MILLI., .METRE. ) );
#90 = EDGE_LOOP ( 'NONE', ( #42 ) ) ;
#91 = PLANE ( 'NONE',  #98 ) ;
#92 = AXIS2_PLACEMENT_3D ( 'NONE', #39, #41, #73 ) ;
#93 =( NAMED_UNIT ( * ) SI_UNIT ( $, .STERADIAN. ) SOLID_ANGLE_UNIT ( ) );
#94 = PRODUCT_RELATED_PRODUCT_CATEGORY ( 'part', '', ( #194 ) ) ;
#95 = CARTESIAN_POINT ( 'NONE',  ( 31.00000000000000711, 0.0000000000000000000, 0.0000000000000000000 ) ) ;
#96 = UNCERTAINTY_MEASURE_WITH_UNIT (LENGTH_MEASURE( 1.000000000000000082E-05 ), #102, 'distance_accuracy_value', 'NONE');
#97 = PRESENTATION_STYLE_ASSIGNMENT (( #116 ) ) ;
#98 = AXIS2_PLACEMENT_3D ( 'NONE', #156, #76, #40 ) ;
#99 = FACE_OUTER_BOUND ( 'NONE', #16, .T. ) ;
#100 =( NAMED_UNIT ( * ) PLANE_ANGLE_UNIT ( ) SI_UNIT ( $, .RADIAN. ) );
#101 = CYLINDRICAL_SURFACE ( 'NONE', #132, 1.700000000000003952 ) ;
#102 =( LENGTH_UNIT ( ) NAMED_UNIT ( * ) SI_UNIT ( .MILLI., .METRE. ) );
#103 = PRODUCT_DEFINITION_FORMATION_WITH_SPECIFIED_SOURCE ( 'ANY', '', #194, .NOT_KNOWN. ) ;
#104 =( NAMED_UNIT ( * ) PLANE_ANGLE_UNIT ( ) SI_UNIT ( $, .RADIAN. ) );
#105 = CARTESIAN_POINT ( 'NONE',  ( 0.0000000000000000000, 0.0000000000000000000, 0.0000000000000000000 ) ) ;
#106 = CARTESIAN_POINT ( 'NONE',  ( 0.3400000000000016342, 0.0000000000000000000, 0.0000000000000000000 ) ) ;
#107 = PRODUCT_CONTEXT ( 'NONE', #170, 'mechanical' ) ;
#108 = CARTESIAN_POINT ( 'NONE',  ( 31.00000000000000711, 0.0000000000000000000, 0.0000000000000000000 ) ) ;
#109 = SURFACE_STYLE_FILL_AREA ( #88 ) ;
#110 = ADVANCED_FACE ( 'NONE', ( #164, #171 ), #101, .T. ) ;
#111 = AXIS2_PLACEMENT_3D ( 'NONE', #19, #56, #15 ) ;
#112 = CONICAL_SURFACE ( 'NONE', #111, 1.360000000000000098, 0.7853981633974514986 ) ;
#113 = MECHANICAL_DESIGN_GEOMETRIC_PRESENTATION_REPRESENTATION (  '', ( #66 ), #187 ) ;
#114 = VERTEX_POINT ( 'NONE', #141 ) ;
#115 = COLOUR_RGB ( '',0.7921568627450980005, 0.8196078431372548767, 0.9333333333333333481 ) ;
#116 = SURFACE_STYLE_USAGE ( .BOTH. , #13 ) ;
#117 =( GEOMETRIC_REPRESENTATION_CONTEXT ( 3 ) GLOBAL_UNCERTAINTY_ASSIGNED_CONTEXT ( ( #179 ) ) GLOBAL_UNIT_ASSIGNED_CONTEXT ( ( #209, #100, #198 ) ) REPRESENTATION_CONTEXT ( 'NONE', 'WORKASPACE' ) );
#118 = VERTEX_POINT ( 'NONE', #18 ) ;
#119 = ORIENTED_EDGE ( 'NONE', *, *, #149, .T. ) ;
#120 = FILL_AREA_STYLE_COLOUR ( '', #142 ) ;
#121 = UNCERTAINTY_MEASURE_WITH_UNIT (LENGTH_MEASURE( 1.000000000000000082E-05 ), #89, 'distance_accuracy_value', 'NONE');
#122 = CARTESIAN_POINT ( 'NONE',  ( 0.3400000000000016342, 0.0000000000000000000, -1.700000000000003952 ) ) ;
#123 = EDGE_CURVE ( 'NONE', #118, #118, #150, .T. ) ;
#124 = UNCERTAINTY_MEASURE_WITH_UNIT (LENGTH_MEASURE( 1.000000000000000082E-05 ), #14, 'distance_accuracy_value', 'NONE');
#125 = DIRECTION ( 'NONE',  ( 1.000000000000000000, 0.0000000000000000000, 0.0000000000000000000 ) ) ;
#126 = FACE_OUTER_BOUND ( 'NONE', #90, .T. ) ;
#127 = ORIENTED_EDGE ( 'NONE', *, *, #123, .T. ) ;
#128 = DIRECTION ( 'NONE',  ( -1.000000000000000000, -0.0000000000000000000, -0.0000000000000000000 ) ) ;
#129 = PRODUCT_DEFINITION_SHAPE ( 'NONE', 'NONE',  #137 ) ;
#130 = ORIENTED_EDGE ( 'NONE', *, *, #149, .F. ) ;
#131 = ADVANCED_BREP_SHAPE_REPRESENTATION ( '03-1640', ( #70, #87, #30 ), #208 ) ;
#132 = AXIS2_PLACEMENT_3D ( 'NONE', #152, #55, #176 ) ;
#133 = EDGE_LOOP ( 'NONE', ( #11 ) ) ;
#134 = EDGE_CURVE ( 'NONE', #159, #159, #63, .T. ) ;
#135 = FILL_AREA_STYLE ('',( #54 ) ) ;
#136 = DIRECTION ( 'NONE',  ( -1.000000000000000000, -0.0000000000000000000, -0.0000000000000000000 ) ) ;
#137 = PRODUCT_DEFINITION ( 'UNKNOWN', '', #103, #31 ) ;
#138 =( NAMED_UNIT ( * ) SI_UNIT ( $, .STERADIAN. ) SOLID_ANGLE_UNIT ( ) );
#139 =( NAMED_UNIT ( * ) PLANE_ANGLE_UNIT ( ) SI_UNIT ( $, .RADIAN. ) );
#140 = FACE_BOUND ( 'NONE', #133, .T. ) ;
#141 = CARTESIAN_POINT ( 'NONE',  ( 31.00000000000000711, 0.0000000000000000000, -1.700000000000003952 ) ) ;
#142 = COLOUR_RGB ( '',1.000000000000000000, 1.000000000000000000, 0.0000000000000000000 ) ;
#143 = AXIS2_PLACEMENT_3D ( 'NONE', #153, #128, #4 ) ;
#144 = FILL_AREA_STYLE_COLOUR ( '', #196 ) ;
#145 =( LENGTH_UNIT ( ) NAMED_UNIT ( * ) SI_UNIT ( .MILLI., .METRE. ) );
#146 = FILL_AREA_STYLE ('',( #28 ) ) ;
#147 = PRESENTATION_STYLE_ASSIGNMENT (( #182 ) ) ;
#148 = PRESENTATION_STYLE_ASSIGNMENT (( #161 ) ) ;
#149 = EDGE_CURVE ( 'NONE', #114, #114, #8, .T. ) ;
#150 = CIRCLE ( 'NONE', #74, 1.360000000000000098 ) ;
#151 = AXIS2_PLACEMENT_3D ( 'NONE', #108, #125, #5 ) ;
#152 = CARTESIAN_POINT ( 'NONE',  ( 0.0000000000000000000, 0.0000000000000000000, 0.0000000000000000000 ) ) ;
#153 = CARTESIAN_POINT ( 'NONE',  ( 69.29583694396573890, 0.0000000000000000000, 0.0000000000000000000 ) ) ;
#154 =( NAMED_UNIT ( * ) SI_UNIT ( $, .STERADIAN. ) SOLID_ANGLE_UNIT ( ) );
#155 = CARTESIAN_POINT ( 'NONE',  ( 69.29583694396573890, 0.0000000000000000000, 1.700000000000008393 ) ) ;
#156 = CARTESIAN_POINT ( 'NONE',  ( 31.00000000000000711, 0.0000000000000000000, 0.0000000000000000000 ) ) ;
#157 = EDGE_CURVE ( 'NONE', #71, #71, #12, .T. ) ;
#158 = CARTESIAN_POINT ( 'NONE',  ( -1.040949779275250017E-16, 1.699999999999999956, 0.0000000000000000000 ) ) ;
#159 = VERTEX_POINT ( 'NONE', #155 ) ;
#160 = MECHANICAL_DESIGN_GEOMETRIC_PRESENTATION_REPRESENTATION (  '', ( #34 ), #197 ) ;
#161 = SURFACE_STYLE_USAGE ( .BOTH. , #62 ) ;
#162 = UNCERTAINTY_MEASURE_WITH_UNIT (LENGTH_MEASURE( 1.000000000000000082E-05 ), #202, 'distance_accuracy_value', 'NONE');
#163 = ADVANCED_FACE ( 'NONE', ( #189 ), #165, .T. ) ;
#164 = FACE_OUTER_BOUND ( 'NONE', #2, .T. ) ;
#165 = CONICAL_SURFACE ( 'NONE', #20, 2414.213562373084187, 1.178097245096170864 ) ;
#166 = COLOUR_RGB ( '',1.000000000000000000, 1.000000000000000000, 0.0000000000000000000 ) ;
#167 = EDGE_CURVE ( 'NONE', #26, #26, #204, .T. ) ;
#168 = FACE_OUTER_BOUND ( 'NONE', #169, .T. ) ;
#169 = EDGE_LOOP ( 'NONE', ( #130 ) ) ;
#170 = APPLICATION_CONTEXT ( 'automotive_design' ) ;
#171 = FACE_OUTER_BOUND ( 'NONE', #9, .T. ) ;
#172 = CARTESIAN_POINT ( 'NONE',  ( 31.00000000000000711, 0.0000000000000000000, -1.700000000000003952 ) ) ;
#173 = ADVANCED_FACE ( 'NONE', ( #126, #168 ), #83, .T. ) ;
#174 = AXIS2_PLACEMENT_3D ( 'NONE', #158, #46, #49 ) ;
#175 = AXIS2_PLACEMENT_3D ( 'NONE', #43, #21, #58 ) ;
#176 = DIRECTION ( 'NONE',  ( 0.0000000000000000000, 0.0000000000000000000, 1.000000000000000000 ) ) ;
#177 = PRESENTATION_STYLE_ASSIGNMENT (( #25 ) ) ;
#178 = EDGE_LOOP ( 'NONE', ( #48 ) ) ;
#179 = UNCERTAINTY_MEASURE_WITH_UNIT (LENGTH_MEASURE( 1.000000000000000082E-05 ), #209, 'distance_accuracy_value', 'NONE');
#180 = FILL_AREA_STYLE ('',( #120 ) ) ;
#181 = SURFACE_SIDE_STYLE ('',( #109 ) ) ;
#182 = SURFACE_STYLE_USAGE ( .BOTH. , #75 ) ;
#183 = SURFACE_STYLE_FILL_AREA ( #211 ) ;
#184 = SURFACE_STYLE_FILL_AREA ( #146 ) ;
#185 =( NAMED_UNIT ( * ) PLANE_ANGLE_UNIT ( ) SI_UNIT ( $, .RADIAN. ) );
#186 =( NAMED_UNIT ( * ) PLANE_ANGLE_UNIT ( ) SI_UNIT ( $, .RADIAN. ) );
#187 =( GEOMETRIC_REPRESENTATION_CONTEXT ( 3 ) GLOBAL_UNCERTAINTY_ASSIGNED_CONTEXT ( ( #124 ) ) GLOBAL_UNIT_ASSIGNED_CONTEXT ( ( #14, #104, #138 ) ) REPRESENTATION_CONTEXT ( 'NONE', 'WORKASPACE' ) );
#188 = ADVANCED_FACE ( 'NONE', ( #36 ), #91, .F. ) ;
#189 = FACE_OUTER_BOUND ( 'NONE', #79, .T. ) ;
#190 = APPLICATION_PROTOCOL_DEFINITION ( 'draft international standard', 'automotive_design', 1998, #81 ) ;
#191 = DIRECTION ( 'NONE',  ( 1.000000000000000000, 0.0000000000000000000, 0.0000000000000000000 ) ) ;
#192 = SURFACE_SIDE_STYLE ('',( #59 ) ) ;
#193 = AXIS2_PLACEMENT_3D ( 'NONE', #95, #191, #82 ) ;
#194 = PRODUCT ( '03-1640', '03-1640', '', ( #107 ) ) ;
#195 = UNCERTAINTY_MEASURE_WITH_UNIT (LENGTH_MEASURE( 1.000000000000000082E-05 ), #145, 'distance_accuracy_value', 'NONE');
#196 = COLOUR_RGB ( '',0.7921568627450980005, 0.8196078431372548767, 0.9333333333333333481 ) ;
#197 =( GEOMETRIC_REPRESENTATION_CONTEXT ( 3 ) GLOBAL_UNCERTAINTY_ASSIGNED_CONTEXT ( ( #121 ) ) GLOBAL_UNIT_ASSIGNED_CONTEXT ( ( #89, #185, #154 ) ) REPRESENTATION_CONTEXT ( 'NONE', 'WORKASPACE' ) );
#198 =( NAMED_UNIT ( * ) SI_UNIT ( $, .STERADIAN. ) SOLID_ANGLE_UNIT ( ) );
#199 =( NAMED_UNIT ( * ) SI_UNIT ( $, .STERADIAN. ) SOLID_ANGLE_UNIT ( ) );
#200 = COLOUR_RGB ( '',0.7921568627450980005, 0.8196078431372548767, 0.9333333333333333481 ) ;
#201 = FILL_AREA_STYLE_COLOUR ( '', #200 ) ;
#202 =( LENGTH_UNIT ( ) NAMED_UNIT ( * ) SI_UNIT ( .MILLI., .METRE. ) );
#203 = DIRECTION ( 'NONE',  ( 1.000000000000000000, 0.0000000000000000000, 0.0000000000000000000 ) ) ;
#204 = CIRCLE ( 'NONE', #6, 1.700000000000003952 ) ;
#205 = CARTESIAN_POINT ( 'NONE',  ( -929.9999999999998863, 0.0000000000000000000, 0.0000000000000000000 ) ) ;
#206 = STYLED_ITEM ( 'NONE', ( #97 ), #110 ) ;
#207 = SHAPE_DEFINITION_REPRESENTATION ( #129, #131 ) ;
#208 =( GEOMETRIC_REPRESENTATION_CONTEXT ( 3 ) GLOBAL_UNCERTAINTY_ASSIGNED_CONTEXT ( ( #162 ) ) GLOBAL_UNIT_ASSIGNED_CONTEXT ( ( #202, #139, #212 ) ) REPRESENTATION_CONTEXT ( 'NONE', 'WORKASPACE' ) );
#209 =( LENGTH_UNIT ( ) NAMED_UNIT ( * ) SI_UNIT ( .MILLI., .METRE. ) );
#210 = CARTESIAN_POINT ( 'NONE',  ( -1.040949779275250017E-16, 0.0000000000000000000, 0.0000000000000000000 ) ) ;
#211 = FILL_AREA_STYLE ('',( #201 ) ) ;
#212 =( NAMED_UNIT ( * ) SI_UNIT ( $, .STERADIAN. ) SOLID_ANGLE_UNIT ( ) );
#213 = DIRECTION ( 'NONE',  ( 1.000000000000000000, 0.0000000000000000000, 0.0000000000000000000 ) ) ;
ENDSEC;
END-ISO-10303-21;
