ISO-10303-21;
HEADER;
FILE_DESCRIPTION (( 'STEP AP214' ),
    '1' );
FILE_NAME ('03-1641.STEP',
    '2021-10-01T05:06:01',
    ( 'USER' ),
    ( '' ),
    'SwSTEP 2.0',
    'SolidWorks 2018',
    '' );
FILE_SCHEMA (( 'AUTOMOTIVE_DESIGN' ));
ENDSEC;

DATA;
#1 = SURFACE_STYLE_FILL_AREA ( #141 ) ;
#2 = DIRECTION ( 'NONE',  ( 0.0000000000000000000, 0.0000000000000000000, -1.000000000000000000 ) ) ;
#3 = PRESENTATION_LAYER_ASSIGNMENT (  '', '', ( #14 ) ) ;
#4 = UNCERTAINTY_MEASURE_WITH_UNIT (LENGTH_MEASURE( 1.000000000000000082E-05 ), #111, 'distance_accuracy_value', 'NONE');
#5 = ADVANCED_FACE ( 'NONE', ( #112, #32 ), #212, .T. ) ;
#6 = DIRECTION ( 'NONE',  ( 1.000000000000000000, 0.0000000000000000000, 0.0000000000000000000 ) ) ;
#7 = CARTESIAN_POINT ( 'NONE',  ( 0.3499999999999919287, 0.0000000000000000000, -1.750000000000004219 ) ) ;
#8 = FILL_AREA_STYLE ('',( #87 ) ) ;
#9 = FILL_AREA_STYLE ('',( #122 ) ) ;
#10 = FACE_OUTER_BOUND ( 'NONE', #15, .T. ) ;
#11 = SURFACE_STYLE_USAGE ( .BOTH. , #125 ) ;
#12 = ORIENTED_EDGE ( 'NONE', *, *, #126, .T. ) ;
#13 = EDGE_CURVE ( 'NONE', #17, #17, #160, .T. ) ;
#14 = STYLED_ITEM ( 'NONE', ( #197 ), #169 ) ;
#15 = EDGE_LOOP ( 'NONE', ( #143 ) ) ;
#16 = FACE_OUTER_BOUND ( 'NONE', #190, .T. ) ;
#17 = VERTEX_POINT ( 'NONE', #39 ) ;
#18 = ADVANCED_FACE ( 'NONE', ( #202 ), #43, .F. ) ;
#19 = VERTEX_POINT ( 'NONE', #205 ) ;
#20 =( NAMED_UNIT ( * ) SI_UNIT ( $, .STERADIAN. ) SOLID_ANGLE_UNIT ( ) );
#21 = ORIENTED_EDGE ( 'NONE', *, *, #126, .F. ) ;
#22 = PRESENTATION_STYLE_ASSIGNMENT (( #29 ) ) ;
#23 = AXIS2_PLACEMENT_3D ( 'NONE', #171, #53, #152 ) ;
#24 = CARTESIAN_POINT ( 'NONE',  ( -1.071565949253934025E-16, 0.0000000000000000000, -1.400000000000012346 ) ) ;
#25 = SURFACE_STYLE_USAGE ( .BOTH. , #136 ) ;
#26 = PRESENTATION_STYLE_ASSIGNMENT (( #123 ) ) ;
#27 = FACE_OUTER_BOUND ( 'NONE', #178, .T. ) ;
#28 = AXIS2_PLACEMENT_3D ( 'NONE', #163, #58, #31 ) ;
#29 = SURFACE_STYLE_USAGE ( .BOTH. , #139 ) ;
#30 = SURFACE_SIDE_STYLE ('',( #74 ) ) ;
#31 = DIRECTION ( 'NONE',  ( 0.0000000000000000000, 0.0000000000000000000, 1.000000000000000000 ) ) ;
#32 = FACE_BOUND ( 'NONE', #82, .T. ) ;
#33 = COLOUR_RGB ( '',1.000000000000000000, 1.000000000000000000, 0.0000000000000000000 ) ;
#34 = FACE_OUTER_BOUND ( 'NONE', #118, .T. ) ;
#35 = AXIS2_PLACEMENT_3D ( 'NONE', #38, #6, #40 ) ;
#36 =( GEOMETRIC_REPRESENTATION_CONTEXT ( 3 ) GLOBAL_UNCERTAINTY_ASSIGNED_CONTEXT ( ( #4 ) ) GLOBAL_UNIT_ASSIGNED_CONTEXT ( ( #111, #213, #93 ) ) REPRESENTATION_CONTEXT ( 'NONE', 'WORKASPACE' ) );
#37 =( LENGTH_UNIT ( ) NAMED_UNIT ( * ) SI_UNIT ( .MILLI., .METRE. ) );
#38 = CARTESIAN_POINT ( 'NONE',  ( -1.071565949253934025E-16, 0.0000000000000000000, 0.0000000000000000000 ) ) ;
#39 = CARTESIAN_POINT ( 'NONE',  ( 31.00000000000000711, 0.0000000000000000000, -1.750000000000004219 ) ) ;
#40 = DIRECTION ( 'NONE',  ( 0.0000000000000000000, 0.0000000000000000000, -1.000000000000000000 ) ) ;
#41 = MECHANICAL_DESIGN_GEOMETRIC_PRESENTATION_REPRESENTATION (  '', ( #117 ), #159 ) ;
#42 = CARTESIAN_POINT ( 'NONE',  ( 0.0000000000000000000, 0.0000000000000000000, 0.0000000000000000000 ) ) ;
#43 = PLANE ( 'NONE',  #113 ) ;
#44 =( NAMED_UNIT ( * ) PLANE_ANGLE_UNIT ( ) SI_UNIT ( $, .RADIAN. ) );
#45 = UNCERTAINTY_MEASURE_WITH_UNIT (LENGTH_MEASURE( 1.000000000000000082E-05 ), #173, 'distance_accuracy_value', 'NONE');
#46 = CIRCLE ( 'NONE', #131, 1.400000000000012346 ) ;
#47 = SHAPE_DEFINITION_REPRESENTATION ( #60, #155 ) ;
#48 = DIRECTION ( 'NONE',  ( 1.000000000000000000, 0.0000000000000000000, 0.0000000000000000000 ) ) ;
#49 = MECHANICAL_DESIGN_GEOMETRIC_PRESENTATION_REPRESENTATION (  '', ( #80 ), #36 ) ;
#50 = VERTEX_POINT ( 'NONE', #24 ) ;
#51 = PRODUCT_RELATED_PRODUCT_CATEGORY ( 'part', '', ( #167 ) ) ;
#52 = ORIENTED_EDGE ( 'NONE', *, *, #134, .T. ) ;
#53 = DIRECTION ( 'NONE',  ( 1.000000000000000000, 0.0000000000000000000, 0.0000000000000000000 ) ) ;
#54 =( NAMED_UNIT ( * ) PLANE_ANGLE_UNIT ( ) SI_UNIT ( $, .RADIAN. ) );
#55 = CARTESIAN_POINT ( 'NONE',  ( 0.0000000000000000000, 0.0000000000000000000, 0.0000000000000000000 ) ) ;
#56 = PRESENTATION_LAYER_ASSIGNMENT (  '', '', ( #80 ) ) ;
#57 = DIRECTION ( 'NONE',  ( 1.000000000000000000, 0.0000000000000000000, 0.0000000000000000000 ) ) ;
#58 = DIRECTION ( 'NONE',  ( -1.000000000000000000, -0.0000000000000000000, -0.0000000000000000000 ) ) ;
#59 = MANIFOLD_SOLID_BREP ( 'ºÐÇÒ2[2]', #96 ) ;
#60 = PRODUCT_DEFINITION_SHAPE ( 'NONE', 'NONE',  #72 ) ;
#61 = DIRECTION ( 'NONE',  ( -1.000000000000000000, -0.0000000000000000000, -0.0000000000000000000 ) ) ;
#62 = VERTEX_POINT ( 'NONE', #78 ) ;
#63 = PRODUCT_DEFINITION_FORMATION_WITH_SPECIFIED_SOURCE ( 'ANY', '', #167, .NOT_KNOWN. ) ;
#64 = EDGE_LOOP ( 'NONE', ( #207 ) ) ;
#65 = FACE_OUTER_BOUND ( 'NONE', #81, .T. ) ;
#66 = PLANE ( 'NONE',  #67 ) ;
#67 = AXIS2_PLACEMENT_3D ( 'NONE', #182, #48, #79 ) ;
#68 = ADVANCED_FACE ( 'NONE', ( #150 ), #206, .F. ) ;
#69 = COLOUR_RGB ( '',0.7921568627450980005, 0.8196078431372548767, 0.9333333333333333481 ) ;
#70 = COLOUR_RGB ( '',0.7921568627450980005, 0.8196078431372548767, 0.9333333333333333481 ) ;
#71 = DIRECTION ( 'NONE',  ( 1.000000000000000000, 0.0000000000000000000, 0.0000000000000000000 ) ) ;
#72 = PRODUCT_DEFINITION ( 'UNKNOWN', '', #63, #181 ) ;
#73 = UNCERTAINTY_MEASURE_WITH_UNIT (LENGTH_MEASURE( 1.000000000000000082E-05 ), #158, 'distance_accuracy_value', 'NONE');
#74 = SURFACE_STYLE_FILL_AREA ( #188 ) ;
#75 =( NAMED_UNIT ( * ) PLANE_ANGLE_UNIT ( ) SI_UNIT ( $, .RADIAN. ) );
#76 = DIRECTION ( 'NONE',  ( 0.0000000000000000000, 0.0000000000000000000, -1.000000000000000000 ) ) ;
#77 =( NAMED_UNIT ( * ) PLANE_ANGLE_UNIT ( ) SI_UNIT ( $, .RADIAN. ) );
#78 = CARTESIAN_POINT ( 'NONE',  ( 31.00000000000000711, 0.0000000000000000000, -1.750000000000004219 ) ) ;
#79 = DIRECTION ( 'NONE',  ( 0.0000000000000000000, 0.0000000000000000000, -1.000000000000000000 ) ) ;
#80 = STYLED_ITEM ( 'NONE', ( #95 ), #162 ) ;
#81 = EDGE_LOOP ( 'NONE', ( #52 ) ) ;
#82 = EDGE_LOOP ( 'NONE', ( #92 ) ) ;
#83 = AXIS2_PLACEMENT_3D ( 'NONE', #42, #175, #192 ) ;
#84 = CIRCLE ( 'NONE', #142, 1.750000000000004219 ) ;
#85 = ADVANCED_FACE ( 'NONE', ( #34, #27 ), #88, .T. ) ;
#86 = ORIENTED_EDGE ( 'NONE', *, *, #164, .T. ) ;
#87 = FILL_AREA_STYLE_COLOUR ( '', #69 ) ;
#88 = CYLINDRICAL_SURFACE ( 'NONE', #124, 1.750000000000004219 ) ;
#89 = SURFACE_STYLE_USAGE ( .BOTH. , #189 ) ;
#90 = CARTESIAN_POINT ( 'NONE',  ( 31.00000000000000711, 0.0000000000000000000, 0.0000000000000000000 ) ) ;
#91 = PRODUCT_CONTEXT ( 'NONE', #156, 'mechanical' ) ;
#92 = ORIENTED_EDGE ( 'NONE', *, *, #94, .F. ) ;
#93 =( NAMED_UNIT ( * ) SI_UNIT ( $, .STERADIAN. ) SOLID_ANGLE_UNIT ( ) );
#94 = EDGE_CURVE ( 'NONE', #50, #50, #46, .T. ) ;
#95 = PRESENTATION_STYLE_ASSIGNMENT (( #11 ) ) ;
#96 = CLOSED_SHELL ( 'NONE', ( #18, #85, #169 ) ) ;
#97 = DIRECTION ( 'NONE',  ( 1.000000000000000000, 0.0000000000000000000, 0.0000000000000000000 ) ) ;
#98 = SURFACE_STYLE_FILL_AREA ( #161 ) ;
#99 = STYLED_ITEM ( 'NONE', ( #116 ), #59 ) ;
#100 = CIRCLE ( 'NONE', #28, 1.750000000000008438 ) ;
#101 = AXIS2_PLACEMENT_3D ( 'NONE', #149, #129, #184 ) ;
#102 = ADVANCED_FACE ( 'NONE', ( #65, #10 ), #191, .T. ) ;
#103 = UNCERTAINTY_MEASURE_WITH_UNIT (LENGTH_MEASURE( 1.000000000000000082E-05 ), #105, 'distance_accuracy_value', 'NONE');
#104 = ORIENTED_EDGE ( 'NONE', *, *, #13, .T. ) ;
#105 =( LENGTH_UNIT ( ) NAMED_UNIT ( * ) SI_UNIT ( .MILLI., .METRE. ) );
#106 =( LENGTH_UNIT ( ) NAMED_UNIT ( * ) SI_UNIT ( .MILLI., .METRE. ) );
#107 = APPLICATION_PROTOCOL_DEFINITION ( 'draft international standard', 'automotive_design', 1998, #208 ) ;
#108 = CARTESIAN_POINT ( 'NONE',  ( -1.071565949253934025E-16, 1.750000000000000000, 0.0000000000000000000 ) ) ;
#109 = CARTESIAN_POINT ( 'NONE',  ( -929.9999999999998863, 0.0000000000000000000, 0.0000000000000000000 ) ) ;
#110 = COLOUR_RGB ( '',0.7921568627450980005, 0.8196078431372548767, 0.9333333333333333481 ) ;
#111 =( LENGTH_UNIT ( ) NAMED_UNIT ( * ) SI_UNIT ( .MILLI., .METRE. ) );
#112 = FACE_OUTER_BOUND ( 'NONE', #165, .T. ) ;
#113 = AXIS2_PLACEMENT_3D ( 'NONE', #90, #71, #187 ) ;
#114 = CONICAL_SURFACE ( 'NONE', #185, 2414.213562373049172, 1.178097245096165757 ) ;
#115 = AXIS2_PLACEMENT_3D ( 'NONE', #201, #97, #2 ) ;
#116 = PRESENTATION_STYLE_ASSIGNMENT (( #25 ) ) ;
#117 = STYLED_ITEM ( 'NONE', ( #26 ), #85 ) ;
#118 = EDGE_LOOP ( 'NONE', ( #12 ) ) ;
#119 =( GEOMETRIC_REPRESENTATION_CONTEXT ( 3 ) GLOBAL_UNCERTAINTY_ASSIGNED_CONTEXT ( ( #73 ) ) GLOBAL_UNIT_ASSIGNED_CONTEXT ( ( #158, #44, #177 ) ) REPRESENTATION_CONTEXT ( 'NONE', 'WORKASPACE' ) );
#120 = DIRECTION ( 'NONE',  ( -1.000000000000000000, -0.0000000000000000000, -0.0000000000000000000 ) ) ;
#121 =( GEOMETRIC_REPRESENTATION_CONTEXT ( 3 ) GLOBAL_UNCERTAINTY_ASSIGNED_CONTEXT ( ( #133 ) ) GLOBAL_UNIT_ASSIGNED_CONTEXT ( ( #106, #54, #209 ) ) REPRESENTATION_CONTEXT ( 'NONE', 'WORKASPACE' ) );
#122 = FILL_AREA_STYLE_COLOUR ( '', #110 ) ;
#123 = SURFACE_STYLE_USAGE ( .BOTH. , #30 ) ;
#124 = AXIS2_PLACEMENT_3D ( 'NONE', #55, #193, #145 ) ;
#125 = SURFACE_SIDE_STYLE ('',( #98 ) ) ;
#126 = EDGE_CURVE ( 'NONE', #62, #62, #147, .T. ) ;
#127 = MECHANICAL_DESIGN_GEOMETRIC_PRESENTATION_REPRESENTATION (  '', ( #146 ), #119 ) ;
#128 = ORIENTED_EDGE ( 'NONE', *, *, #134, .F. ) ;
#129 = DIRECTION ( 'NONE',  ( -1.000000000000000000, -0.0000000000000000000, -0.0000000000000000000 ) ) ;
#130 = MECHANICAL_DESIGN_GEOMETRIC_PRESENTATION_REPRESENTATION (  '', ( #99 ), #121 ) ;
#131 = AXIS2_PLACEMENT_3D ( 'NONE', #144, #120, #76 ) ;
#132 =( NAMED_UNIT ( * ) PLANE_ANGLE_UNIT ( ) SI_UNIT ( $, .RADIAN. ) );
#133 = UNCERTAINTY_MEASURE_WITH_UNIT (LENGTH_MEASURE( 1.000000000000000082E-05 ), #106, 'distance_accuracy_value', 'NONE');
#134 = EDGE_CURVE ( 'NONE', #166, #166, #84, .T. ) ;
#135 = DIRECTION ( 'NONE',  ( 0.0000000000000000000, 0.0000000000000000000, 1.000000000000000000 ) ) ;
#136 = SURFACE_SIDE_STYLE ('',( #199 ) ) ;
#137 = PRESENTATION_LAYER_ASSIGNMENT (  '', '', ( #146 ) ) ;
#138 = DIRECTION ( 'NONE',  ( 1.000000000000000000, 0.0000000000000000000, 0.0000000000000000000 ) ) ;
#139 = SURFACE_SIDE_STYLE ('',( #172 ) ) ;
#140 = CARTESIAN_POINT ( 'NONE',  ( 0.3499999999999919287, 0.0000000000000000000, 0.0000000000000000000 ) ) ;
#141 = FILL_AREA_STYLE ('',( #179 ) ) ;
#142 = AXIS2_PLACEMENT_3D ( 'NONE', #140, #57, #180 ) ;
#143 = ORIENTED_EDGE ( 'NONE', *, *, #13, .F. ) ;
#144 = CARTESIAN_POINT ( 'NONE',  ( -1.071565949253934025E-16, 0.0000000000000000000, 0.0000000000000000000 ) ) ;
#145 = DIRECTION ( 'NONE',  ( 0.0000000000000000000, 0.0000000000000000000, 1.000000000000000000 ) ) ;
#146 = STYLED_ITEM ( 'NONE', ( #22 ), #155 ) ;
#147 = CIRCLE ( 'NONE', #115, 1.750000000000004219 ) ;
#148 = ADVANCED_FACE ( 'NONE', ( #16 ), #66, .T. ) ;
#149 = CARTESIAN_POINT ( 'NONE',  ( 0.0000000000000000000, 0.0000000000000000000, 0.0000000000000000000 ) ) ;
#150 = FACE_OUTER_BOUND ( 'NONE', #64, .T. ) ;
#151 = COLOUR_RGB ( '',1.000000000000000000, 1.000000000000000000, 0.0000000000000000000 ) ;
#152 = DIRECTION ( 'NONE',  ( 0.0000000000000000000, 0.0000000000000000000, -1.000000000000000000 ) ) ;
#153 =( NAMED_UNIT ( * ) SI_UNIT ( $, .STERADIAN. ) SOLID_ANGLE_UNIT ( ) );
#154 = FILL_AREA_STYLE_COLOUR ( '', #70 ) ;
#155 = ADVANCED_BREP_SHAPE_REPRESENTATION ( '03-1641', ( #162, #59, #83 ), #174 ) ;
#156 = APPLICATION_CONTEXT ( 'automotive_design' ) ;
#157 = DIRECTION ( 'NONE',  ( 0.0000000000000000000, 0.0000000000000000000, -1.000000000000000000 ) ) ;
#158 =( LENGTH_UNIT ( ) NAMED_UNIT ( * ) SI_UNIT ( .MILLI., .METRE. ) );
#159 =( GEOMETRIC_REPRESENTATION_CONTEXT ( 3 ) GLOBAL_UNCERTAINTY_ASSIGNED_CONTEXT ( ( #200 ) ) GLOBAL_UNIT_ASSIGNED_CONTEXT ( ( #37, #132, #20 ) ) REPRESENTATION_CONTEXT ( 'NONE', 'WORKASPACE' ) );
#160 = CIRCLE ( 'NONE', #23, 1.750000000000004219 ) ;
#161 = FILL_AREA_STYLE ('',( #154 ) ) ;
#162 = MANIFOLD_SOLID_BREP ( 'ºÐÇÒ2[1]', #186 ) ;
#163 = CARTESIAN_POINT ( 'NONE',  ( 69.27512626584707789, 0.0000000000000000000, 0.0000000000000000000 ) ) ;
#164 = EDGE_CURVE ( 'NONE', #19, #19, #100, .T. ) ;
#165 = EDGE_LOOP ( 'NONE', ( #128 ) ) ;
#166 = VERTEX_POINT ( 'NONE', #7 ) ;
#167 = PRODUCT ( '03-1641', '03-1641', '', ( #91 ) ) ;
#168 = PRESENTATION_LAYER_ASSIGNMENT (  '', '', ( #117 ) ) ;
#169 = ADVANCED_FACE ( 'NONE', ( #203 ), #114, .T. ) ;
#170 = EDGE_LOOP ( 'NONE', ( #183 ) ) ;
#171 = CARTESIAN_POINT ( 'NONE',  ( 31.00000000000000711, 0.0000000000000000000, 0.0000000000000000000 ) ) ;
#172 = SURFACE_STYLE_FILL_AREA ( #9 ) ;
#173 =( LENGTH_UNIT ( ) NAMED_UNIT ( * ) SI_UNIT ( .MILLI., .METRE. ) );
#174 =( GEOMETRIC_REPRESENTATION_CONTEXT ( 3 ) GLOBAL_UNCERTAINTY_ASSIGNED_CONTEXT ( ( #103 ) ) GLOBAL_UNIT_ASSIGNED_CONTEXT ( ( #105, #77, #194 ) ) REPRESENTATION_CONTEXT ( 'NONE', 'WORKASPACE' ) );
#175 = DIRECTION ( 'NONE',  ( 0.0000000000000000000, 0.0000000000000000000, 1.000000000000000000 ) ) ;
#176 = FILL_AREA_STYLE_COLOUR ( '', #33 ) ;
#177 =( NAMED_UNIT ( * ) SI_UNIT ( $, .STERADIAN. ) SOLID_ANGLE_UNIT ( ) );
#178 = EDGE_LOOP ( 'NONE', ( #86 ) ) ;
#179 = FILL_AREA_STYLE_COLOUR ( '', #151 ) ;
#180 = DIRECTION ( 'NONE',  ( 0.0000000000000000000, 0.0000000000000000000, -1.000000000000000000 ) ) ;
#181 = PRODUCT_DEFINITION_CONTEXT ( 'detailed design', #208, 'design' ) ;
#182 = CARTESIAN_POINT ( 'NONE',  ( 31.00000000000000711, 0.0000000000000000000, 0.0000000000000000000 ) ) ;
#183 = ORIENTED_EDGE ( 'NONE', *, *, #164, .F. ) ;
#184 = DIRECTION ( 'NONE',  ( 0.0000000000000000000, 0.0000000000000000000, 1.000000000000000000 ) ) ;
#185 = AXIS2_PLACEMENT_3D ( 'NONE', #109, #61, #135 ) ;
#186 = CLOSED_SHELL ( 'NONE', ( #102, #68, #5, #148 ) ) ;
#187 = DIRECTION ( 'NONE',  ( 0.0000000000000000000, 0.0000000000000000000, -1.000000000000000000 ) ) ;
#188 = FILL_AREA_STYLE ('',( #176 ) ) ;
#189 = SURFACE_SIDE_STYLE ('',( #1 ) ) ;
#190 = EDGE_LOOP ( 'NONE', ( #104 ) ) ;
#191 = CYLINDRICAL_SURFACE ( 'NONE', #101, 1.750000000000004219 ) ;
#192 = DIRECTION ( 'NONE',  ( 1.000000000000000000, 0.0000000000000000000, 0.0000000000000000000 ) ) ;
#193 = DIRECTION ( 'NONE',  ( -1.000000000000000000, -0.0000000000000000000, -0.0000000000000000000 ) ) ;
#194 =( NAMED_UNIT ( * ) SI_UNIT ( $, .STERADIAN. ) SOLID_ANGLE_UNIT ( ) );
#195 = AXIS2_PLACEMENT_3D ( 'NONE', #108, #138, #157 ) ;
#196 = EDGE_LOOP ( 'NONE', ( #21 ) ) ;
#197 = PRESENTATION_STYLE_ASSIGNMENT (( #89 ) ) ;
#198 =( GEOMETRIC_REPRESENTATION_CONTEXT ( 3 ) GLOBAL_UNCERTAINTY_ASSIGNED_CONTEXT ( ( #45 ) ) GLOBAL_UNIT_ASSIGNED_CONTEXT ( ( #173, #75, #153 ) ) REPRESENTATION_CONTEXT ( 'NONE', 'WORKASPACE' ) );
#199 = SURFACE_STYLE_FILL_AREA ( #8 ) ;
#200 = UNCERTAINTY_MEASURE_WITH_UNIT (LENGTH_MEASURE( 1.000000000000000082E-05 ), #37, 'distance_accuracy_value', 'NONE');
#201 = CARTESIAN_POINT ( 'NONE',  ( 31.00000000000000711, 0.0000000000000000000, 0.0000000000000000000 ) ) ;
#202 = FACE_OUTER_BOUND ( 'NONE', #196, .T. ) ;
#203 = FACE_OUTER_BOUND ( 'NONE', #170, .T. ) ;
#204 = PRESENTATION_LAYER_ASSIGNMENT (  '', '', ( #99 ) ) ;
#205 = CARTESIAN_POINT ( 'NONE',  ( 69.27512626584707789, 0.0000000000000000000, 1.750000000000008438 ) ) ;
#206 = PLANE ( 'NONE',  #195 ) ;
#207 = ORIENTED_EDGE ( 'NONE', *, *, #94, .T. ) ;
#208 = APPLICATION_CONTEXT ( 'automotive_design' ) ;
#209 =( NAMED_UNIT ( * ) SI_UNIT ( $, .STERADIAN. ) SOLID_ANGLE_UNIT ( ) );
#210 = MECHANICAL_DESIGN_GEOMETRIC_PRESENTATION_REPRESENTATION (  '', ( #14 ), #198 ) ;
#211 = APPLICATION_PROTOCOL_DEFINITION ( 'draft international standard', 'automotive_design', 1998, #156 ) ;
#212 = CONICAL_SURFACE ( 'NONE', #35, 1.400000000000012346, 0.7853981633974479459 ) ;
#213 =( NAMED_UNIT ( * ) PLANE_ANGLE_UNIT ( ) SI_UNIT ( $, .RADIAN. ) );
ENDSEC;
END-ISO-10303-21;
