ISO-10303-21;
HEADER;
FILE_DESCRIPTION (( 'STEP AP214' ),
    '1' );
FILE_NAME ('03-1642.STEP',
    '2021-10-01T05:06:15',
    ( 'USER' ),
    ( '' ),
    'SwSTEP 2.0',
    'SolidWorks 2018',
    '' );
FILE_SCHEMA (( 'AUTOMOTIVE_DESIGN' ));
ENDSEC;

DATA;
#1 = FACE_OUTER_BOUND ( 'NONE', #115, .T. ) ;
#2 = SURFACE_STYLE_USAGE ( .BOTH. , #124 ) ;
#3 = CARTESIAN_POINT ( 'NONE',  ( 0.0000000000000000000, 0.0000000000000000000, 0.0000000000000000000 ) ) ;
#4 = EDGE_LOOP ( 'NONE', ( #209 ) ) ;
#5 =( LENGTH_UNIT ( ) NAMED_UNIT ( * ) SI_UNIT ( .MILLI., .METRE. ) );
#6 = CARTESIAN_POINT ( 'NONE',  ( 31.00000000000000711, 0.0000000000000000000, -1.800000000000004263 ) ) ;
#7 = FILL_AREA_STYLE_COLOUR ( '', #152 ) ;
#8 = DIRECTION ( 'NONE',  ( -1.000000000000000000, -0.0000000000000000000, -0.0000000000000000000 ) ) ;
#9 = DIRECTION ( 'NONE',  ( 1.000000000000000000, 0.0000000000000000000, 0.0000000000000000000 ) ) ;
#10 = UNCERTAINTY_MEASURE_WITH_UNIT (LENGTH_MEASURE( 1.000000000000000082E-05 ), #111, 'distance_accuracy_value', 'NONE');
#11 = CIRCLE ( 'NONE', #40, 1.439999999999989733 ) ;
#12 =( GEOMETRIC_REPRESENTATION_CONTEXT ( 3 ) GLOBAL_UNCERTAINTY_ASSIGNED_CONTEXT ( ( #133 ) ) GLOBAL_UNIT_ASSIGNED_CONTEXT ( ( #144, #92, #183 ) ) REPRESENTATION_CONTEXT ( 'NONE', 'WORKASPACE' ) );
#13 = ORIENTED_EDGE ( 'NONE', *, *, #154, .T. ) ;
#14 = FILL_AREA_STYLE ('',( #7 ) ) ;
#15 = DIRECTION ( 'NONE',  ( 1.000000000000000000, 0.0000000000000000000, 0.0000000000000000000 ) ) ;
#16 = PRESENTATION_STYLE_ASSIGNMENT (( #48 ) ) ;
#17 = STYLED_ITEM ( 'NONE', ( #197 ), #180 ) ;
#18 = CARTESIAN_POINT ( 'NONE',  ( 31.00000000000000711, 0.0000000000000000000, 0.0000000000000000000 ) ) ;
#19 = VERTEX_POINT ( 'NONE', #58 ) ;
#20 = PRESENTATION_STYLE_ASSIGNMENT (( #145 ) ) ;
#21 = FILL_AREA_STYLE ('',( #137 ) ) ;
#22 = SURFACE_STYLE_FILL_AREA ( #14 ) ;
#23 = CARTESIAN_POINT ( 'NONE',  ( 0.3600000000000211919, 0.0000000000000000000, -1.800000000000004263 ) ) ;
#24 =( NAMED_UNIT ( * ) SI_UNIT ( $, .STERADIAN. ) SOLID_ANGLE_UNIT ( ) );
#25 = DIRECTION ( 'NONE',  ( -1.000000000000000000, -0.0000000000000000000, -0.0000000000000000000 ) ) ;
#26 =( LENGTH_UNIT ( ) NAMED_UNIT ( * ) SI_UNIT ( .MILLI., .METRE. ) );
#27 = UNCERTAINTY_MEASURE_WITH_UNIT (LENGTH_MEASURE( 1.000000000000000082E-05 ), #71, 'distance_accuracy_value', 'NONE');
#28 =( LENGTH_UNIT ( ) NAMED_UNIT ( * ) SI_UNIT ( .MILLI., .METRE. ) );
#29 = PRESENTATION_LAYER_ASSIGNMENT (  '', '', ( #17 ) ) ;
#30 = CIRCLE ( 'NONE', #198, 1.800000000000004263 ) ;
#31 = PRODUCT ( '03-1642', '03-1642', '', ( #187 ) ) ;
#32 =( GEOMETRIC_REPRESENTATION_CONTEXT ( 3 ) GLOBAL_UNCERTAINTY_ASSIGNED_CONTEXT ( ( #127 ) ) GLOBAL_UNIT_ASSIGNED_CONTEXT ( ( #5, #125, #24 ) ) REPRESENTATION_CONTEXT ( 'NONE', 'WORKASPACE' ) );
#33 = CIRCLE ( 'NONE', #103, 1.800000000000004263 ) ;
#34 = SURFACE_STYLE_USAGE ( .BOTH. , #85 ) ;
#35 = CARTESIAN_POINT ( 'NONE',  ( 31.00000000000000711, 0.0000000000000000000, 0.0000000000000000000 ) ) ;
#36 = FILL_AREA_STYLE_COLOUR ( '', #201 ) ;
#37 = PRESENTATION_STYLE_ASSIGNMENT (( #161 ) ) ;
#38 = ORIENTED_EDGE ( 'NONE', *, *, #167, .T. ) ;
#39 = ADVANCED_FACE ( 'NONE', ( #1 ), #78, .T. ) ;
#40 = AXIS2_PLACEMENT_3D ( 'NONE', #51, #8, #64 ) ;
#41 = PRODUCT_DEFINITION_SHAPE ( 'NONE', 'NONE',  #53 ) ;
#42 = AXIS2_PLACEMENT_3D ( 'NONE', #3, #113, #9 ) ;
#43 = COLOUR_RGB ( '',0.7921568627450980005, 0.8196078431372548767, 0.9333333333333333481 ) ;
#44 = ORIENTED_EDGE ( 'NONE', *, *, #167, .F. ) ;
#45 = APPLICATION_CONTEXT ( 'automotive_design' ) ;
#46 = DIRECTION ( 'NONE',  ( 0.0000000000000000000, 0.0000000000000000000, -1.000000000000000000 ) ) ;
#47 = DIRECTION ( 'NONE',  ( 0.0000000000000000000, 0.0000000000000000000, 1.000000000000000000 ) ) ;
#48 = SURFACE_STYLE_USAGE ( .BOTH. , #190 ) ;
#49 = SURFACE_STYLE_FILL_AREA ( #21 ) ;
#50 = EDGE_LOOP ( 'NONE', ( #135 ) ) ;
#51 = CARTESIAN_POINT ( 'NONE',  ( -1.102182119232618034E-16, 0.0000000000000000000, 0.0000000000000000000 ) ) ;
#52 =( NAMED_UNIT ( * ) PLANE_ANGLE_UNIT ( ) SI_UNIT ( $, .RADIAN. ) );
#53 = PRODUCT_DEFINITION ( 'UNKNOWN', '', #65, #153 ) ;
#54 = ADVANCED_FACE ( 'NONE', ( #109, #164 ), #149, .T. ) ;
#55 = EDGE_LOOP ( 'NONE', ( #175 ) ) ;
#56 = AXIS2_PLACEMENT_3D ( 'NONE', #63, #132, #189 ) ;
#57 = FACE_OUTER_BOUND ( 'NONE', #155, .T. ) ;
#58 = CARTESIAN_POINT ( 'NONE',  ( 69.25441558772841688, 0.0000000000000000000, 1.800000000000008482 ) ) ;
#59 = AXIS2_PLACEMENT_3D ( 'NONE', #211, #25, #47 ) ;
#60 = DIRECTION ( 'NONE',  ( 0.0000000000000000000, 0.0000000000000000000, -1.000000000000000000 ) ) ;
#61 = CARTESIAN_POINT ( 'NONE',  ( 0.3600000000000211919, 0.0000000000000000000, 0.0000000000000000000 ) ) ;
#62 =( GEOMETRIC_REPRESENTATION_CONTEXT ( 3 ) GLOBAL_UNCERTAINTY_ASSIGNED_CONTEXT ( ( #10 ) ) GLOBAL_UNIT_ASSIGNED_CONTEXT ( ( #111, #202, #91 ) ) REPRESENTATION_CONTEXT ( 'NONE', 'WORKASPACE' ) );
#63 = CARTESIAN_POINT ( 'NONE',  ( 0.0000000000000000000, 0.0000000000000000000, 0.0000000000000000000 ) ) ;
#64 = DIRECTION ( 'NONE',  ( 0.0000000000000000000, 0.0000000000000000000, -1.000000000000000000 ) ) ;
#65 = PRODUCT_DEFINITION_FORMATION_WITH_SPECIFIED_SOURCE ( 'ANY', '', #31, .NOT_KNOWN. ) ;
#66 = SHAPE_DEFINITION_REPRESENTATION ( #41, #80 ) ;
#67 = EDGE_LOOP ( 'NONE', ( #77 ) ) ;
#68 = DIRECTION ( 'NONE',  ( 0.0000000000000000000, 0.0000000000000000000, 1.000000000000000000 ) ) ;
#69 = FILL_AREA_STYLE ('',( #143 ) ) ;
#70 = DIRECTION ( 'NONE',  ( 0.0000000000000000000, 0.0000000000000000000, -1.000000000000000000 ) ) ;
#71 =( LENGTH_UNIT ( ) NAMED_UNIT ( * ) SI_UNIT ( .MILLI., .METRE. ) );
#72 = AXIS2_PLACEMENT_3D ( 'NONE', #61, #150, #46 ) ;
#73 = CIRCLE ( 'NONE', #88, 1.800000000000008482 ) ;
#74 = PRODUCT_RELATED_PRODUCT_CATEGORY ( 'part', '', ( #31 ) ) ;
#75 = UNCERTAINTY_MEASURE_WITH_UNIT (LENGTH_MEASURE( 1.000000000000000082E-05 ), #26, 'distance_accuracy_value', 'NONE');
#76 = MECHANICAL_DESIGN_GEOMETRIC_PRESENTATION_REPRESENTATION (  '', ( #17 ), #32 ) ;
#77 = ORIENTED_EDGE ( 'NONE', *, *, #203, .F. ) ;
#78 = PLANE ( 'NONE',  #116 ) ;
#79 = FACE_OUTER_BOUND ( 'NONE', #101, .T. ) ;
#80 = ADVANCED_BREP_SHAPE_REPRESENTATION ( '03-1642', ( #160, #199, #42 ), #12 ) ;
#81 = SURFACE_STYLE_FILL_AREA ( #69 ) ;
#82 = FACE_OUTER_BOUND ( 'NONE', #55, .T. ) ;
#83 = AXIS2_PLACEMENT_3D ( 'NONE', #178, #204, #102 ) ;
#84 = DIRECTION ( 'NONE',  ( -1.000000000000000000, -0.0000000000000000000, -0.0000000000000000000 ) ) ;
#85 = SURFACE_SIDE_STYLE ('',( #22 ) ) ;
#86 = CARTESIAN_POINT ( 'NONE',  ( 31.00000000000000711, 0.0000000000000000000, 0.0000000000000000000 ) ) ;
#87 = COLOUR_RGB ( '',0.7921568627450980005, 0.8196078431372548767, 0.9333333333333333481 ) ;
#88 = AXIS2_PLACEMENT_3D ( 'NONE', #114, #97, #206 ) ;
#89 = ORIENTED_EDGE ( 'NONE', *, *, #179, .T. ) ;
#90 = CLOSED_SHELL ( 'NONE', ( #120, #107, #54, #39 ) ) ;
#91 =( NAMED_UNIT ( * ) SI_UNIT ( $, .STERADIAN. ) SOLID_ANGLE_UNIT ( ) );
#92 =( NAMED_UNIT ( * ) PLANE_ANGLE_UNIT ( ) SI_UNIT ( $, .RADIAN. ) );
#93 = AXIS2_PLACEMENT_3D ( 'NONE', #94, #186, #126 ) ;
#94 = CARTESIAN_POINT ( 'NONE',  ( -1.102182119232618034E-16, 0.0000000000000000000, 0.0000000000000000000 ) ) ;
#95 = APPLICATION_CONTEXT ( 'automotive_design' ) ;
#96 = EDGE_LOOP ( 'NONE', ( #185 ) ) ;
#97 = DIRECTION ( 'NONE',  ( -1.000000000000000000, -0.0000000000000000000, -0.0000000000000000000 ) ) ;
#98 = FILL_AREA_STYLE ('',( #172 ) ) ;
#99 = DIRECTION ( 'NONE',  ( 1.000000000000000000, 0.0000000000000000000, 0.0000000000000000000 ) ) ;
#100 = PRESENTATION_LAYER_ASSIGNMENT (  '', '', ( #136 ) ) ;
#101 = EDGE_LOOP ( 'NONE', ( #171 ) ) ;
#102 = DIRECTION ( 'NONE',  ( 0.0000000000000000000, 0.0000000000000000000, -1.000000000000000000 ) ) ;
#103 = AXIS2_PLACEMENT_3D ( 'NONE', #86, #117, #70 ) ;
#104 = DIRECTION ( 'NONE',  ( 0.0000000000000000000, 0.0000000000000000000, -1.000000000000000000 ) ) ;
#105 = SURFACE_STYLE_FILL_AREA ( #98 ) ;
#106 = SURFACE_SIDE_STYLE ('',( #148 ) ) ;
#107 = ADVANCED_FACE ( 'NONE', ( #119 ), #193, .F. ) ;
#108 = VERTEX_POINT ( 'NONE', #23 ) ;
#109 = FACE_OUTER_BOUND ( 'NONE', #67, .T. ) ;
#110 = MECHANICAL_DESIGN_GEOMETRIC_PRESENTATION_REPRESENTATION (  '', ( #128 ), #121 ) ;
#111 =( LENGTH_UNIT ( ) NAMED_UNIT ( * ) SI_UNIT ( .MILLI., .METRE. ) );
#112 = EDGE_LOOP ( 'NONE', ( #38 ) ) ;
#113 = DIRECTION ( 'NONE',  ( 0.0000000000000000000, 0.0000000000000000000, 1.000000000000000000 ) ) ;
#114 = CARTESIAN_POINT ( 'NONE',  ( 69.25441558772841688, 0.0000000000000000000, 0.0000000000000000000 ) ) ;
#115 = EDGE_LOOP ( 'NONE', ( #89 ) ) ;
#116 = AXIS2_PLACEMENT_3D ( 'NONE', #210, #99, #60 ) ;
#117 = DIRECTION ( 'NONE',  ( 1.000000000000000000, 0.0000000000000000000, 0.0000000000000000000 ) ) ;
#118 = AXIS2_PLACEMENT_3D ( 'NONE', #35, #15, #104 ) ;
#119 = FACE_OUTER_BOUND ( 'NONE', #96, .T. ) ;
#120 = ADVANCED_FACE ( 'NONE', ( #82, #195 ), #139, .T. ) ;
#121 =( GEOMETRIC_REPRESENTATION_CONTEXT ( 3 ) GLOBAL_UNCERTAINTY_ASSIGNED_CONTEXT ( ( #27 ) ) GLOBAL_UNIT_ASSIGNED_CONTEXT ( ( #71, #163, #130 ) ) REPRESENTATION_CONTEXT ( 'NONE', 'WORKASPACE' ) );
#122 = CYLINDRICAL_SURFACE ( 'NONE', #56, 1.800000000000004263 ) ;
#123 = FACE_OUTER_BOUND ( 'NONE', #192, .T. ) ;
#124 = SURFACE_SIDE_STYLE ('',( #49 ) ) ;
#125 =( NAMED_UNIT ( * ) PLANE_ANGLE_UNIT ( ) SI_UNIT ( $, .RADIAN. ) );
#126 = DIRECTION ( 'NONE',  ( 0.0000000000000000000, 0.0000000000000000000, -1.000000000000000000 ) ) ;
#127 = UNCERTAINTY_MEASURE_WITH_UNIT (LENGTH_MEASURE( 1.000000000000000082E-05 ), #5, 'distance_accuracy_value', 'NONE');
#128 = STYLED_ITEM ( 'NONE', ( #20 ), #160 ) ;
#129 = CLOSED_SHELL ( 'NONE', ( #165, #194, #180 ) ) ;
#130 =( NAMED_UNIT ( * ) SI_UNIT ( $, .STERADIAN. ) SOLID_ANGLE_UNIT ( ) );
#131 = PRESENTATION_LAYER_ASSIGNMENT (  '', '', ( #128 ) ) ;
#132 = DIRECTION ( 'NONE',  ( -1.000000000000000000, -0.0000000000000000000, -0.0000000000000000000 ) ) ;
#133 = UNCERTAINTY_MEASURE_WITH_UNIT (LENGTH_MEASURE( 1.000000000000000082E-05 ), #144, 'distance_accuracy_value', 'NONE');
#134 = DIRECTION ( 'NONE',  ( 1.000000000000000000, 0.0000000000000000000, 0.0000000000000000000 ) ) ;
#135 = ORIENTED_EDGE ( 'NONE', *, *, #191, .F. ) ;
#136 = STYLED_ITEM ( 'NONE', ( #37 ), #199 ) ;
#137 = FILL_AREA_STYLE_COLOUR ( '', #87 ) ;
#138 = CARTESIAN_POINT ( 'NONE',  ( -1.102182119232618034E-16, 0.0000000000000000000, -1.439999999999989733 ) ) ;
#139 = CYLINDRICAL_SURFACE ( 'NONE', #162, 1.800000000000004263 ) ;
#140 =( NAMED_UNIT ( * ) SI_UNIT ( $, .STERADIAN. ) SOLID_ANGLE_UNIT ( ) );
#141 = COLOUR_RGB ( '',1.000000000000000000, 1.000000000000000000, 0.0000000000000000000 ) ;
#142 = VERTEX_POINT ( 'NONE', #138 ) ;
#143 = FILL_AREA_STYLE_COLOUR ( '', #43 ) ;
#144 =( LENGTH_UNIT ( ) NAMED_UNIT ( * ) SI_UNIT ( .MILLI., .METRE. ) );
#145 = SURFACE_STYLE_USAGE ( .BOTH. , #106 ) ;
#146 = FILL_AREA_STYLE ('',( #36 ) ) ;
#147 = VERTEX_POINT ( 'NONE', #6 ) ;
#148 = SURFACE_STYLE_FILL_AREA ( #146 ) ;
#149 = CONICAL_SURFACE ( 'NONE', #93, 1.439999999999989733, 0.7853981633974389531 ) ;
#150 = DIRECTION ( 'NONE',  ( 1.000000000000000000, 0.0000000000000000000, 0.0000000000000000000 ) ) ;
#151 =( GEOMETRIC_REPRESENTATION_CONTEXT ( 3 ) GLOBAL_UNCERTAINTY_ASSIGNED_CONTEXT ( ( #75 ) ) GLOBAL_UNIT_ASSIGNED_CONTEXT ( ( #26, #207, #140 ) ) REPRESENTATION_CONTEXT ( 'NONE', 'WORKASPACE' ) );
#152 = COLOUR_RGB ( '',1.000000000000000000, 1.000000000000000000, 0.0000000000000000000 ) ;
#153 = PRODUCT_DEFINITION_CONTEXT ( 'detailed design', #95, 'design' ) ;
#154 = EDGE_CURVE ( 'NONE', #147, #147, #30, .T. ) ;
#155 = EDGE_LOOP ( 'NONE', ( #13 ) ) ;
#156 =( GEOMETRIC_REPRESENTATION_CONTEXT ( 3 ) GLOBAL_UNCERTAINTY_ASSIGNED_CONTEXT ( ( #181 ) ) GLOBAL_UNIT_ASSIGNED_CONTEXT ( ( #28, #52, #176 ) ) REPRESENTATION_CONTEXT ( 'NONE', 'WORKASPACE' ) );
#157 = SURFACE_SIDE_STYLE ('',( #81 ) ) ;
#158 = MECHANICAL_DESIGN_GEOMETRIC_PRESENTATION_REPRESENTATION (  '', ( #200 ), #62 ) ;
#159 = PLANE ( 'NONE',  #118 ) ;
#160 = MANIFOLD_SOLID_BREP ( 'ºÐÇÒ2[1]', #90 ) ;
#161 = SURFACE_STYLE_USAGE ( .BOTH. , #157 ) ;
#162 = AXIS2_PLACEMENT_3D ( 'NONE', #174, #84, #68 ) ;
#163 =( NAMED_UNIT ( * ) PLANE_ANGLE_UNIT ( ) SI_UNIT ( $, .RADIAN. ) );
#164 = FACE_BOUND ( 'NONE', #50, .T. ) ;
#165 = ADVANCED_FACE ( 'NONE', ( #79 ), #159, .F. ) ;
#166 = MECHANICAL_DESIGN_GEOMETRIC_PRESENTATION_REPRESENTATION (  '', ( #188 ), #151 ) ;
#167 = EDGE_CURVE ( 'NONE', #19, #19, #73, .T. ) ;
#168 = APPLICATION_PROTOCOL_DEFINITION ( 'draft international standard', 'automotive_design', 1998, #45 ) ;
#169 = PRESENTATION_LAYER_ASSIGNMENT (  '', '', ( #200 ) ) ;
#170 = CARTESIAN_POINT ( 'NONE',  ( 31.00000000000000711, 0.0000000000000000000, -1.800000000000004263 ) ) ;
#171 = ORIENTED_EDGE ( 'NONE', *, *, #154, .F. ) ;
#172 = FILL_AREA_STYLE_COLOUR ( '', #141 ) ;
#173 = PRESENTATION_LAYER_ASSIGNMENT (  '', '', ( #188 ) ) ;
#174 = CARTESIAN_POINT ( 'NONE',  ( 0.0000000000000000000, 0.0000000000000000000, 0.0000000000000000000 ) ) ;
#175 = ORIENTED_EDGE ( 'NONE', *, *, #203, .T. ) ;
#176 =( NAMED_UNIT ( * ) SI_UNIT ( $, .STERADIAN. ) SOLID_ANGLE_UNIT ( ) );
#177 = CONICAL_SURFACE ( 'NONE', #59, 2414.213562373059176, 1.178097245096167311 ) ;
#178 = CARTESIAN_POINT ( 'NONE',  ( -1.102182119232618034E-16, 1.800000000000000044, 0.0000000000000000000 ) ) ;
#179 = EDGE_CURVE ( 'NONE', #184, #184, #33, .T. ) ;
#180 = ADVANCED_FACE ( 'NONE', ( #123 ), #177, .T. ) ;
#181 = UNCERTAINTY_MEASURE_WITH_UNIT (LENGTH_MEASURE( 1.000000000000000082E-05 ), #28, 'distance_accuracy_value', 'NONE');
#182 = FACE_OUTER_BOUND ( 'NONE', #112, .T. ) ;
#183 =( NAMED_UNIT ( * ) SI_UNIT ( $, .STERADIAN. ) SOLID_ANGLE_UNIT ( ) );
#184 = VERTEX_POINT ( 'NONE', #170 ) ;
#185 = ORIENTED_EDGE ( 'NONE', *, *, #191, .T. ) ;
#186 = DIRECTION ( 'NONE',  ( 1.000000000000000000, 0.0000000000000000000, 0.0000000000000000000 ) ) ;
#187 = PRODUCT_CONTEXT ( 'NONE', #45, 'mechanical' ) ;
#188 = STYLED_ITEM ( 'NONE', ( #16 ), #194 ) ;
#189 = DIRECTION ( 'NONE',  ( 0.0000000000000000000, 0.0000000000000000000, 1.000000000000000000 ) ) ;
#190 = SURFACE_SIDE_STYLE ('',( #105 ) ) ;
#191 = EDGE_CURVE ( 'NONE', #142, #142, #11, .T. ) ;
#192 = EDGE_LOOP ( 'NONE', ( #44 ) ) ;
#193 = PLANE ( 'NONE',  #83 ) ;
#194 = ADVANCED_FACE ( 'NONE', ( #57, #182 ), #122, .T. ) ;
#195 = FACE_OUTER_BOUND ( 'NONE', #4, .T. ) ;
#196 = MECHANICAL_DESIGN_GEOMETRIC_PRESENTATION_REPRESENTATION (  '', ( #136 ), #156 ) ;
#197 = PRESENTATION_STYLE_ASSIGNMENT (( #34 ) ) ;
#198 = AXIS2_PLACEMENT_3D ( 'NONE', #18, #134, #212 ) ;
#199 = MANIFOLD_SOLID_BREP ( 'ºÐÇÒ2[2]', #129 ) ;
#200 = STYLED_ITEM ( 'NONE', ( #213 ), #80 ) ;
#201 = COLOUR_RGB ( '',0.7921568627450980005, 0.8196078431372548767, 0.9333333333333333481 ) ;
#202 =( NAMED_UNIT ( * ) PLANE_ANGLE_UNIT ( ) SI_UNIT ( $, .RADIAN. ) );
#203 = EDGE_CURVE ( 'NONE', #108, #108, #208, .T. ) ;
#204 = DIRECTION ( 'NONE',  ( 1.000000000000000000, 0.0000000000000000000, 0.0000000000000000000 ) ) ;
#205 = APPLICATION_PROTOCOL_DEFINITION ( 'draft international standard', 'automotive_design', 1998, #95 ) ;
#206 = DIRECTION ( 'NONE',  ( 0.0000000000000000000, 0.0000000000000000000, 1.000000000000000000 ) ) ;
#207 =( NAMED_UNIT ( * ) PLANE_ANGLE_UNIT ( ) SI_UNIT ( $, .RADIAN. ) );
#208 = CIRCLE ( 'NONE', #72, 1.800000000000004263 ) ;
#209 = ORIENTED_EDGE ( 'NONE', *, *, #179, .F. ) ;
#210 = CARTESIAN_POINT ( 'NONE',  ( 31.00000000000000711, 0.0000000000000000000, 0.0000000000000000000 ) ) ;
#211 = CARTESIAN_POINT ( 'NONE',  ( -929.9999999999998863, 0.0000000000000000000, 0.0000000000000000000 ) ) ;
#212 = DIRECTION ( 'NONE',  ( 0.0000000000000000000, 0.0000000000000000000, -1.000000000000000000 ) ) ;
#213 = PRESENTATION_STYLE_ASSIGNMENT (( #2 ) ) ;
ENDSEC;
END-ISO-10303-21;
